Chord Gitar 10538 Overture – Electric Light Orchestra

Posted on

Jika kamu nyariin kunci chord gitar untuk lagu 10538 Overture, kamu berada di halaman yang tepat.
Kamu bisa mainin 10538 Overture yang dinyanyiin oleh Electric Light Orchestra pake gitar yang kamu suka.

Chord lagu 10538 Overture punya ritme dan masuk dalam album The Electric Light Orchestra (1971).
Di website ini, kamu juga bisa dapetin chord lain, seperti chord lagu jazz, chord lagu country, pop, rock, dll.

Kunci Gitar 10538 Overture oleh Electric Light Orchestra


[Picking pattern for the main riff]
[(C)] [(C/Bb)] [(F/A)][(Fm/Ab)]
[D/C] [G/B] [Gm/A#]


d |------------------|------------------|------------------|------------------|
A |------3-----3-----|------3-----3-----|------3-----3-----|------3-----3-----|
F |----2-----2----2--|----2-----2----2--|----0-----0----0--|----0-----0----0--|
C |--0-----0-----0---|------------------|------------------|------------------|
G |------------------|--3-----3-----3---|--2-----2-----2---|--1-----1-----1---|
D |------------------|------------------|------------------|------------------|

[(C)] [(C/Bb)] [(F/A)][(Fm/Ab)][(Fm/Bb)(Fm/Eb)]
[D/C] [G/B] [Gm/A#] [Gm/C] [Gm/F]


d |------------------|------------------|------------------|-------------------|
A |------3-----3-----|------3-----3-----|------3-----3-----|-----3-------------|
F |----2-----2----2--|----2-----2----2--|----0-----0----0--|---0---0-----------|
C |--0-----0-----0---|------------------|------------------|----------------3--|
G |------------------|--3-----3-----3---|--2-----2-----2---|--1-------1-3------|
D |------------------|------------------|------------------|-------------------|


| / / / / | [D/C] / / / / | [G/B] / / / / |[Gm/A#] / / / / |

| / / / / | [D/C] / / / / | [G/B] / / / / |[Gm/A#] / / / / |

| / / / / | [D/C] / / / / | [G/B] / / / / |[Gm/A#] / / [Gm/A#] /___[Gm/C]/ [Gm/F] / |

[Verse 1]
Did you see your f[D/C]riend crying from his [G/B]eyes today? |[Gm/A#] / / [Gm/A#] /___[Gm/C]/ [Gm/F] / |
Did you see him [D/C]run through the streets and [G/B]far away? [Gm/A#] Ah—–!

| / / / / | /__/ /__/ /__/ / |
^ ^ ^ ^ ^ ^ ^ ^ ^ ^ ^

[Verse 2]
Did you see him run, did you see him fall? Ah – ah, ah – ah, ah – ah!
Did his life flash by at the bedroom door? Ah – ah, ah – ah!

[Break 1]
| / / / / | / / / / | / / / / | / / / / | / / / / | / / / / |


Ah---, ah -ah! Ah, ah---, ah - ah!

[Am/C]


e |--1-----1-p0----0----------|--5--5-p3---3--------|
B |--3--3-------3--1--1-------|--3-------6----6--5--|
G |--2-------------2----2--0--|--3------------------|
D |--0-------------2----------|--3------------------|
A |----------------3----------|---------------------|
E |---------------------------|---------------------|


Ah---, ah -ah! Ah, ah---, ah - ah!


| / / / / | [D/C] / / / / | [G/B] / / / / |[Gm/A#] / / / / |

| / / / / | [D/C] / / / / | [G/B] / / / / |[Gm/A#] / / / / |

| / / / / | [D/C] / / / / | [G/B] / / / / |[Gm/A#] / / [Gm/A#] /___[Gm/C]/ [Gm/F] / |

[Verse 4]
Did you hear the [D/C]news? It came across the [G/B]air today, |[Gm/A#] / / [Gm/A#] /___[Gm/C]/ [Gm/F] / |
Someone has been f[D/C]ound on the rocks down[G/B] in the bay! [Gm/A#] Ah—–!

| / / / / | /__/ /__/ /__/ / |
^ ^ ^ ^ ^ ^ ^ ^ ^ ^ ^

[Verse 5]
Did you see him hide, did you see him crawl? Ah – ah, ah – ah, ah – ah!
Does his life mean more than it did be – fore? Ah – ah, ah – ah!

[Break 2]
| / / / / | / / / / | / / / / | / / / / | / / / / | / / / / |


Ah---, ah -ah! Ah, ah---, ah - ah!

[Am/C]


e |--1-----1-p0----0----------|--5--5-p3---3--------|
B |--3--3-------3--1--1-------|--3-------6----6--5--|
G |--2-------------2----2--0--|--3------------------|
D |--0-------------2----------|--3------------------|
A |----------------3----------|---------------------|
E |---------------------------|---------------------|


Ah---, ah -ah! Ah, ah---, ah - ah!


| / / / / | [D/C] / / / / | [G/B] / / / / |[Gm/A#] / / / / |

| / / / / | [D/C] / / / / | [G/B] / / / / |[Gm/A#] / / / / |

| / / / / | [D/C] / / / / | [G/B] / / / / |[Gm/A#] / / [Gm/A#] /___[Gm/C]/ [Gm/F] / |

[Verse 6]
Did you see that [D/C]man running through the st[G/B]reets today? |[Gm/A#] / /[Gm/A#] /___[Gm/C]/ [Gm/F] / |
[D/C] [G/B] [Gm/A#]


Did you catch his face, was it 1 -0 -5 -3 -8? Ah-----!


||: / / / / | [D/C] / / / / | [G/B] / / / / | [Gm/A#] / / / / :||

Jika kamu pingin belajar mainin lagunya Electric Light Orchestra, termasuk chord gitar 10538 Overture.
Kamu bisa belajar dengan mengikuti kursus, masuk sekolah musik, datengin guru untuk les privat bahkan bisa juga dengan cara otodidak.
Untuk dasarnya kamu bisa belajar C major, A major, G major, E major, and D major. Selain kunci tadi, nanti bisa dimodif dikit.

Jangan lupa selalu latihan untuk mainin gitar lagu 10538 Overture. Awal-awal mungkin susah, semoga setelah terbiasa, nanti kamu bisa menguasai semua lagu Electric Light Orchestra

Leave a Reply

Your email address will not be published.