Chord Gitar Expo ’86 –

Posted on

Jika kamu nyariin kunci chord gitar untuk lagu Expo ’86, kamu berada di halaman yang tepat.
Kamu bisa mainin Expo ’86 yang dinyanyiin oleh pake gitar yang kamu suka.

Chord lagu Expo ’86 punya ritme dan masuk dalam album Transatlanticism (2003).
Di website ini, kamu juga bisa dapetin chord lain, seperti chord lagu jazz, chord lagu country, pop, rock, dll.

Kunci Gitar Expo ’86 oleh


“(1)
ok the other tabs are incomplete and inaccurate this should be pretty cloe, except the
might be messed, also on the second chorus it is 9 and 11 not nine and then four ones

intro


e ------------|
B --11--10----|
G --11--9---9-|
D --11--7-9-9-|
A 9---------7-|
E ------------|

Verse


e -------------------0-|
B ---------------------|
G --1-----2------------|
D -------------2-------|
A -----4-----------4---|
E 0---------4----------|

Chorus


e ----------------------------------|
B ----------------------------------|

G 44444444444444/66/8888888888888888
D xxxxxxxxxxxxxx/xx/xxxxxxxxxxxxxxxx
[22222222222222/44/6666666666666666]


E ----------------------------------

second Chorus


e -----------------------------------------------------------------------|
B -------------------------------------555555555555/7777-----------------|

G 444444444444/6666/88888888888888/6666xxxxxxxxxxxx/xxxx8888888888888888-|
D xxxxxxxxxxxx/xxxx/xxxxxxxxxxxxxx/xxxx222222222222/4444xxxxxxxxxxxxxxxx-|


A 222222222222/4444/66666666666666/4444-----------------6666666666666666-|
E -----------------------------------------------------------------------|
e ----------------------------------------------------------------------|
B 777777777777777777777777777777/9999-----------------------------------|

G xxxxxxxxxxxxxxxxxxxxxxxxxxxxxx/xxxx999999999999/1111/8888888888888888-|
D 444444444444444444444444444444/6666xxxxxxxxxxxx/xxxx/xxxxxxxxxxxxxxxx-|


A -----------------------------------777777777777/9999/6666666666666666-|
E ----------------------------------------------------------------------|

Bridge


e -------------------------------------------|
B --------10101010109----------101010101010--|
G 8--/--9-x-x-x-x-x-x--8--/--9-x-x-x-x-x-x---|
D x--/--x-7-7-7-7-7-6--x--/--x-7-7-7-7-7-9---|
A 6--/--7--------------6--/--7---------------|
E -------------------------------------------|

and it’s strange…


e -------------------------------------------------|
B -------------------------------------------------|
G --9---9---9---9-1111111111111111-6-6-6-6-6-6-6-6-|
D --9---9---9---9-1111111111111111-6-6-6-6-6-6-6-6-|
A --7---7---7---7-9-9-9-9-9-9-9-9--4-4-4-4-4-4-4-4-|
E 00--00--00--00-----------------------------------|
e ---------------------------------------------------|
B ----------------------------------------9--9--9--9-|
G 9-9-9-9-9-9-9-9-1111111113-13-13-13-----9--9--9--9-|
D x-x-x-x-x-x-x-x-x-x-x-x-x--x--x--x------9--9--9--9-|
A 7-7-7-7-7-7-7-7-9-9-9-9-11-11-11-11-----7--7--7--7-|
E ---------------------------------------0--0--0--0--|


Jika kamu pingin belajar mainin lagunya , termasuk chord gitar Expo ’86.
Kamu bisa belajar dengan mengikuti kursus, masuk sekolah musik, datengin guru untuk les privat bahkan bisa juga dengan cara otodidak.
Untuk dasarnya kamu bisa belajar C major, A major, G major, E major, and D major. Selain kunci tadi, nanti bisa dimodif dikit.

Jangan lupa selalu latihan untuk mainin gitar lagu Expo ’86. Awal-awal mungkin susah, semoga setelah terbiasa, nanti kamu bisa menguasai semua lagu

Leave a Reply

Your email address will not be published.