Chord Gitar Granite Street Knife Fight – Junction 18

Posted on

Jika kamu nyariin kunci chord gitar untuk lagu Granite Street Knife Fight, kamu berada di halaman yang tepat.
Kamu bisa mainin Granite Street Knife Fight yang dinyanyiin oleh Junction 18 pake gitar yang kamu suka.

Chord lagu Granite Street Knife Fight punya ritme dan masuk dalam album .
Di website ini, kamu juga bisa dapetin chord lain, seperti chord lagu jazz, chord lagu country, pop, rock, dll.

Kunci Gitar Granite Street Knife Fight oleh Junction 18


Artist – Junction 18

Song – Granite Street Knife Fight

Album – This Vicious Cycle

The song could be played in regular tuning but its sooo much easier in drop D.

INTRO (First Guitar)


E-------------------------------------
B-------------------------------------
G-------------------------------------
D-------------------------------------
A---9-55----9-5-55---44---55---5-5-7-9
D-99----7-99-------55---55---77-7-----

It does this during the third bar of the intro


E-----------------
B-----------------
G-----------------
D-----------------
A---9-5-9-10-9-7-5
D-99--------------

INTRO (Second Guitar)


E-------------------
B-------------------
G-------------------

[D-99999999-5555-7777]
[A-99999999-5555-7777]
[D-99999999-5555-7777]
Verse Part1


E--------------------------
B--------------------------
G--------------------------
D-999---555---777---555-777
A-999---555---777---555-777
D-999---555---777---555-777

Verse Part2


E--------------------------
B----11----7-----7---------
G--------------------------
D-999---555---777---555-777
A-999---555---777---555-777
D-999---555---777---555-777

PreChorus


E----------------------------------
B----------------------------------
G----------------------------------
D-55555555-12-11-55555555-9999-7777
A-55555555-12-11-55555555-9999-7777
D-55555555-12-11-55555555-9999-7777

Chorus – same as intro

Interlude


E--------------
B--------------
G--------------
D-2---9---5---7
A-2---9---5---7
D-2---9---5---7

Right at the end it goes


E---------------------------
B---------------------------
G---------------------------

D-77xxxxx-77xxxxxx-77xx-77xx
A-77xxxxx-77xxxxxx-77xx-77xx
D-77xxxxx-77xxxxxx-77xx-77xx

Jika kamu pingin belajar mainin lagunya Junction 18, termasuk chord gitar Granite Street Knife Fight.
Kamu bisa belajar dengan mengikuti kursus, masuk sekolah musik, datengin guru untuk les privat bahkan bisa juga dengan cara otodidak.
Untuk dasarnya kamu bisa belajar C major, A major, G major, E major, and D major. Selain kunci tadi, nanti bisa dimodif dikit.

Jangan lupa selalu latihan untuk mainin gitar lagu Granite Street Knife Fight. Awal-awal mungkin susah, semoga setelah terbiasa, nanti kamu bisa menguasai semua lagu Junction 18

Leave a Reply

Your email address will not be published.