Chord Gitar I Wouldn’t Mind – He Is We

Posted on

Jika kamu nyariin kunci chord gitar untuk lagu I Wouldn’t Mind, kamu berada di halaman yang tepat.
Kamu bisa mainin I Wouldn’t Mind yang dinyanyiin oleh He Is We pake gitar yang kamu suka.

Chord lagu I Wouldn’t Mind punya ritme dan masuk dalam album Old Demos (2010).
Di website ini, kamu juga bisa dapetin chord lain, seperti chord lagu jazz, chord lagu country, pop, rock, dll.

Kunci Gitar I Wouldn’t Mind oleh He Is We


The other version of this with just chords is perfect, I just wanted to add one
with tabs for the chorus and the bridge. It’s really pretty simple. It might not
be 100% accurate, but it’s how I play it.

Intro
Am, F, C, G x2

Verse:
Merrily we fall out of line, Out of line
I’d fall anywhere with you, I’m by your side
Swinging in the rain, Humming melodies
We’re not going anywhere until we freeze.
On this C, strum once, then pick the D G B e B strings, then strum G once

Chorus Picking


|-------0-----------0-----------0-----------3------|
|--------------------------------------------------|
|---2-------2---2-------2---0-------0---0-------0--|
|-2---2---2---3---3---3---2---2---2---0---0---0----|
|--------------------------------------------------|
|--------------------------------------------------|


|-------0-----------0-----------0-----3------------|
|-------------------------------------0------------|
|---2-------2---2-------2---0-------0-0------------|
|-2---2---2---3---3---3---2---2---2---0------------|
|-------------------------------------2------------|
|-------------------------------------3------------|

Chorus:
I’m not afraid anymore
I’m not afraid.
Forever is a long time.
But I wouldn’t mind spending it by your side.

[Am-F-C-G]

Carefully we’ll place for our destiny
You came and you took this heart And set it free.
Every word you write and sing is so warm to me.
So warm to me. I’m torn, I’m torn To be right where you are.
On last C, strum once, then pick the D G B e B strings, then strum G once

Chorus Picking


|-------0-----------0-----------0-----------3------|
|--------------------------------------------------|
|---2-------2---2-------2---0-------0---0-------0--|
|-2---2---2---3---3---3---2---2---2---0---0---0----|
|--------------------------------------------------|
|--------------------------------------------------|


|-------0-----------0-----------0-----3------------|
|-------------------------------------0------------|
|---2-------2---2-------2---0-------0-0------------|
|-2---2---2---3---3---3---2---2---2---0------------|
|-------------------------------------2------------|
|-------------------------------------3------------|

Chorus:
I’m not afraid anymore
I’m not afraid.
Forever is a long time.
But I wouldn’t mind spending it by your side.

Bridge:
Tell me everyday
I get to wake up to that smile.
I wouldn’t mind it at all.
I wouldn’t mind it at all.
(Finger pick the next 3 lines)


|-------0-----------0-----------0-----------0-----|
|-------------------------------------------------|
|---2-------2---2-------2---0-------0---0-------0-|
|-3---3---3---3---3---3---2---2---2---2---2---2---|
|-------------------------------------------------|
|-------------------------------------------------|


|-------0-----------0-----------3-----------3-----|
|-------------------------------------------------|
|---2-------2---2-------2---0-------0---0-------0-|
|-2---2---2---2---2---2---0---0---0---0---0---0---|
|-------------------------------------------------|
|-------------------------------------------------|(Repeat, but strum last G)

You so know me.
Pinch me gently.
I can hardly breath.

Forever is a long, long time
But I wouldn’t mind spending it by your side.
Tell me everyday
I get to wake up to that smile.
I wouldn’t mind it at all.
I wouldn’t mind it at all.

Jika kamu pingin belajar mainin lagunya He Is We, termasuk chord gitar I Wouldn’t Mind.
Kamu bisa belajar dengan mengikuti kursus, masuk sekolah musik, datengin guru untuk les privat bahkan bisa juga dengan cara otodidak.
Untuk dasarnya kamu bisa belajar C major, A major, G major, E major, and D major. Selain kunci tadi, nanti bisa dimodif dikit.

Jangan lupa selalu latihan untuk mainin gitar lagu I Wouldn’t Mind. Awal-awal mungkin susah, semoga setelah terbiasa, nanti kamu bisa menguasai semua lagu He Is We

Leave a Reply

Your email address will not be published.