Chord Gitar Live Love Die – In Fear and Faith

Posted on

Jika kamu nyariin kunci chord gitar untuk lagu Live Love Die, kamu berada di halaman yang tepat.
Kamu bisa mainin Live Love Die yang dinyanyiin oleh In Fear and Faith pake gitar yang kamu suka.

Chord lagu Live Love Die punya ritme dan masuk dalam album Your World on Fire (2009).
Di website ini, kamu juga bisa dapetin chord lain, seperti chord lagu jazz, chord lagu country, pop, rock, dll.

Kunci Gitar Live Love Die oleh In Fear and Faith


As recorded by In Fear and Faith
(From the 2007 Album VOYAGE)

Transcribed by unregistered

Words and Music by In Fear and Faith

Gtr I (D A D G B E) – ‘Guitar 1’
Gtr II (D A D G B E) – ‘Guitar 2’
Gtr III (D A D G B E) – ‘Piano’
Gtr IV (D A D G B E) – ‘Clean Guitar 1’
Gtr V (D A D G B E) – ‘Clean Guitar 2’

Intro
Q175
5/8 4/4
Gtr I
PM| PM PM PM PM PM PM PM-


|--------|-------------------|-----------------|
|--------|-------------------|-----------------|
|--------|-----10---10---9---|-9---7---7---9---|
|--------|-0-0----0----0---0-|---0---0---0---0-|
|--------|-------------------|-----------------|
|--------|-------------------|-----------------|

|
| Gtr II
| H E E E E E E E E E E E E E E E E E


|--------|-------------------|-----------------|
|--------|-------------------|-----------------|
|--------|-------------------|-----------------|
|--------|-------------------|-----------------|
|--------|-0-0--0-0--0-0-0-0-|-0-0-0-0-0-0-0-0-|
|--------|-0-0--0-0--0-0-0-0-|-0-0-0-0-0-0-0-0-|

—| PM PM PM PM PM PM PM


|-------------------|-----------------|
|-------------------|-----------------|
|-----10---10---9---|-9---7---7---9---|
|-0-0----0----0---0-|---0---0---0---0-|
|-------------------|-----------------|
|-------------------|-----------------|

|
| E E E E E E E E E E E E E E E E


|-------------------|-----------------|
|-------------------|-----------------|
|-------------------|-----------------|
|-------------------|-----------------|
|-0-0--0-0--0-0-0-0-|-0-0-0-0-0-0-0-0-|
|-0-0--0-0--0-0-0-0-|-0-0-0-0-0-0-0-0-|

PM| PM PM PM PM PM PM PM-


|-------------------|-------------------|
|-------------------|-------------------|
|-----10---10---9---|-9---12---12---9---|
|-8-8----8----8---8-|---8----8----8---7-|
|-------------------|-------------------|
|-------------------|-------------------|

|
| E E E E E E E E E E E E E E E E


|-------------------|-------------------|
|-------------------|-------------------|
|-------------------|-------------------|
|-------------------|-------------------|
|-8-8--8-8--8-8-8-8-|-8-8--8-8--8-8-8-8-|
|-8-8--8-8--8-8-8-8-|-8-8--8-8--8-8-8-8-|

—| PM PM PM PM PM PM PM


|-------------------|---------------------|
|-------------------|---------------------|
|-----10---10---9---|-12---12---14---14---|
|-7-7----7----7---0-|----0----0----0----0-|
|-------------------|---------------------|
|-------------------|---------------------|

|
| E E E E E E E E E E E E E E E E


|-------------------|---------------------|
|-------------------|---------------------|
|-------------------|---------------------|
|-------------------|---------------------|
|-7-7--7-7--7-7-7-7-|--7-7--7-7--7-7--7-7-|
|-7-7--7-7--7-7-7-7-|--7-7--7-7--7-7--7-7-|

PM| PM PM PM PM PM PM PM—-| PM PM PM PM PM PM PM


|-------------------|-----------------|-------------------|-----------------|
|-------------------|-----------------|-------------------|-----------------|
|-----10---10---9---|-9---7---7---9---|-----10---10---9---|-9---7---7---9---|
|-0-0----0----0---0-|---0---0---0---0-|-0-0----0----0---0-|---0---0---0---0-|
|-------------------|-----------------|-------------------|-----------------|
|-------------------|-----------------|-------------------|-----------------|

|
| E E E E E E E E E E E E E E E E E E E E E E E E E E E E E E E E


|-------------------|-----------------|-------------------|-----------------|
|-------------------|-----------------|-------------------|-----------------|
|-------------------|-----------------|-------------------|-----------------|
|-------------------|-----------------|-------------------|-----------------|
|-0-0--0-0--0-0-0-0-|-0-0-0-0-0-0-0-0-|-0-0--0-0--0-0-0-0-|-0-0-0-0-0-0-0-0-|
|-0-0--0-0--0-0-0-0-|-0-0-0-0-0-0-0-0-|-0-0--0-0--0-0-0-0-|-0-0-0-0-0-0-0-0-|

PM| PM PM PM PM PM PM PM-


|-------------------|-------------------|
|-------------------|-------------------|
|-----10---10---9---|-9---12---12---9---|
|-8-8----8----8---8-|---8----8----8---7-|
|-------------------|-------------------|
|-------------------|-------------------|

|
| E E E E E E E E E E E E E E E E


|-------------------|-------------------|
|-------------------|-------------------|
|-------------------|-------------------|
|-------------------|-------------------|
|-8-8--8-8--8-8-8-8-|-8-8--8-8--8-8-8-8-|
|-8-8--8-8--8-8-8-8-|-8-8--8-8--8-8-8-8-|

—| PM PM PM PM PM PM PM
E E E E E E E E E E E E E E E E Wx2


|-------------------|---------------------|--------||
|-------------------|---------------------|--------||
|-----10---10---9---|-12---12---14---14---|--------||
|-7-7----7----7---0-|----0----0----0----0-|--------||
|-------------------|---------------------|--------||
|-------------------|---------------------|--------||

|
| E E E E E E E E E E E E E E E E Wx2


|-------------------|---------------------|--------||
|-------------------|---------------------|--------||
|-------------------|---------------------|--------||
|-------------------|---------------------|--------||
|-7-7--7-7--7-7-7-7-|--7-7--7-7--7-7--7-7-|--------||
|-7-7--7-7--7-7-7-7-|--7-7--7-7--7-7--7-7-|--------||

Verse
Gtrs I, II


PM------------------------------------------------------------------------|

E E. +T E E. Q S. E Q E E. E. E E E. +T E E. Q S. E Q E E. E. E


|---------------------|----------------|---------------------|----------------|
|---------------------|----------------|---------------------|----------------|
|---------------------|----------------|---------------------|----------------|
|-0-0--(0)-0-0--------|---0--0-0--0--0-|-0-0--(0)-0-0--------|---0--0-0--0--0-|
|-0-0--(0)-0-0--------|---0--0-0--0--0-|-0-0--(0)-0-0--------|---0--0-0--0--0-|
|-0-0--(0)-0-0--------|---0--0-0--0--0-|-0-0--(0)-0-0--------|---0--0-0--0--0-|
PM------------------------------------------------------------------------|

E E. +T E E. Q S. E Q E E. E. E E E. +T E E. Q S. E Q E E. E. E


|---------------------|----------------|---------------------|----------------|
|---------------------|----------------|---------------------|----------------|
|---------------------|----------------|---------------------|----------------|
|-0-0--(0)-0-0--------|---0--0-0--0--0-|-0-0--(0)-0-0--------|---0--0-0--0--0-|
|-0-0--(0)-0-0--------|---0--0-0--0--0-|-0-0--(0)-0-0--------|---0--0-0--0--0-|
|-0-0--(0)-0-0--------|---0--0-0--0--0-|-0-0--(0)-0-0--------|---0--0-0--0--0-|


|-----------------------------|-----------------------------|
|-----------------------------|-----------------------------|
|-10-10--10-10--10-10--10-10--|-10-10--10-10--10-10--10-10--|
|--8--8---8--8---8--8---8--8--|--8--8---8--8---8--8---8--8--|
|--8--8---8--8---8--8---8--8--|--8--8---8--8---8--8---8--8--|
|--8--8---8--8---8--8---8--8--|--8--8---8--8---8--8---8--8--|

|
| Gtr III
| E E E E E E E E E E E E E E E E


|-12--------12---------13-----|----13---------10------------|
|----13---------13--------13--|--------13--------13-----13--|
|--------14--------14---------|-14--------14---------14-----|
|--8-(8)--8-(8)--8-(8)--8-(8)-|--8-(8)--8-(8)--8-(8)--8-(8)-|
|-----------------------------|-----------------------------|
|--8-(8)--8-(8)--8-(8)--8-(8)-|--8-(8)--8-(8)--8-(8)--8-(8)-|


|-------------------------------------|-------------------------------|
|-------------------------------------|-------------------------------|
|-12--12---12---12---12---12--12--12--|-12-12-12-12-12--12---12---12--|
|-10--10---10---10---10---10--10--10--|-10-10-10-10-10--10---10---10--|
|-10--10---10---10---10---10--10--10--|-10-10-10-10-10--10---10---10--|
|-------------------------------------|-------------------------------|

|
| E E E E E E E E E E E E E E E E


|-12------------12------------13------|----13-------10----------------|
|-----13-------------13-----------13--|-------13--------13--------13--|
|----------14-------------14----------|-14-------14----------14-------|
|-------------------------------------|-------------------------------|
|-10-(10)-(10)-(10)-(10)-(10)-10-(10)-|-------------10-(10)-(10)-(10)-|
|-------------------------------------|-------------------------------|
PM-------------------------------------------------------

E E. +T E E. Q S. E Q E E. E. E


|---------------------------------|------------------------|
|---------------------------------|------------------------|
|---------------------------------|------------------------|
|--0-0----(0)-0---0---------------|---0---0-0-----0------0-|
|--0-0----(0)-0---0---------------|---0---0-0-----0------0-|
|--0-0----(0)-0---0---------------|---0---0-0-----0------0-|

|
| E E E E E E E E E E E E E E E E


|-12------------------------------|------------------10----|
|---------------------------------|---------6--10-------10-|
|----------------------7----------|-------7----------------|
|--------------------7-----7------|-----7------------------|
|-------5-------8------------8----|-5-8--------------------|
|--0-7----------------------------|------------------------|
------------------------------------------------------|

E E. +T E E. Q S. E Q E E. E. E


|--------------------------------|------------------------|
|--------------------------------|------------------------|
|--------------------------------|------------------------|
|-0-0----(0)-0---0---------------|---0---0-0-----0------0-|
|-0-0----(0)-0---0---------------|---0---0-0-----0------0-|
|-0-0----(0)-0---0---------------|---0---0-0-----0------0-|

|
| E E E E E E E E E E E E E E E E


|--------------------------------|------------------10-12-|
|--------------------------------|---------6--10----------|
|---------------------7----------|-------7----------------|
|-------------------7-----7------|-----7------------------|
|------5-------8------------8----|-5-8--------------------|
|-0-7----------------------------|------------------------|


|-----------------------------|-----------------------------|
|-----------------------------|-----------------------------|
|-10-10--10-10--10-10--10-10--|-10-10--10-10--10-10--10-10--|
|--8--8---8--8---8--8---8--8--|--8--8---8--8---8--8---8--8--|
|--8--8---8--8---8--8---8--8--|--8--8---8--8---8--8---8--8--|
|--8--8---8--8---8--8---8--8--|--8--8---8--8---8--8---8--8--|

|
| E E E E E E E E E E E E E E E E


|-12--------12---------13-----|----13---------10------------|
|----13---------13--------13--|--------13--------13-----13--|
|--------14--------14---------|-14--------14---------14-----|
|--8-(8)--8-(8)--8-(8)--8-(8)-|--8-(8)--8-(8)--8-(8)--8-(8)-|
|-----------------------------|-----------------------------|
|--8-(8)--8-(8)--8-(8)--8-(8)-|--8-(8)--8-(8)--8-(8)--8-(8)-|


|-------------------------------------|-------------------------------|
|-------------------------------------|-------------------------------|
|-12--12---12---12---12---12--12--12--|-12-12-12-12-12--12---12---12--|
|-10--10---10---10---10---10--10--10--|-10-10-10-10-10--10---10---10--|
|-10--10---10---10---10---10--10--10--|-10-10-10-10-10--10---10---10--|
|-------------------------------------|-------------------------------|

|
| E E E E E E E E E E E E E E E E


|-12------------12------------13------|----13-------10----------------|
|-----13-------------13-----------13--|-------13--------13--------13--|
|----------14-------------14----------|-14-------14----------14-------|
|-------------------------------------|-------------------------------|
|-10-(10)-(10)-(10)-(10)-(10)-10-(10)-|-------------10-(10)-(10)-(10)-|
|-------------------------------------|-------------------------------|
PM-------------------------------------------------------

E E. +T E E. Q S. E Q E E. E. E


|---------------------------------|------------------------|
|---------------------------------|------------------------|
|---------------------------------|------------------------|
|--0-0----(0)-0---0---------------|---0---0-0-----0------0-|
|--0-0----(0)-0---0---------------|---0---0-0-----0------0-|
|--0-0----(0)-0---0---------------|---0---0-0-----0------0-|

|
| E E E E E E E E E E E E E E E E


|-12------------------------------|------------------10----|
|---------------------------------|---------6--10-------10-|
|----------------------7----------|-------7----------------|
|--------------------7-----7------|-----7------------------|
|-------5-------8------------8----|-5-8--------------------|
|--0-7----------------------------|------------------------|
------------------------------------------------------|

E E. +T E E. Q S. E Q E E. E. E


|--------------------------------|------------------------|
|--------------------------------|------------------------|
|--------------------------------|------------------------|
|-0-0----(0)-0---0---------------|---0---0-0-----0------0-|
|-0-0----(0)-0---0---------------|---0---0-0-----0------0-|
|-0-0----(0)-0---0---------------|---0---0-0-----0------0-|

|
| E E E E E E E E E E E E E E E E


|--------------------------------|------------------10-12-|
|--------------------------------|---------6--10----------|
|---------------------7----------|-------7----------------|
|-------------------7-----7------|-----7------------------|
|------5-------8------------8----|-5-8--------------------|
|-0-7----------------------------|------------------------|


|-----------------------------|-----------------------------|
|-----------------------------|-----------------------------|
|-10-10--10-10--10-10--10-10--|-10-10--10-10--10-10--10-10--|
|--8--8---8--8---8--8---8--8--|--8--8---8--8---8--8---8--8--|
|--8--8---8--8---8--8---8--8--|--8--8---8--8---8--8---8--8--|
|--8--8---8--8---8--8---8--8--|--8--8---8--8---8--8---8--8--|

|
| E E E E E E E E E E E E E E E E


|-12--------12---------13-----|----13---------10------------|
|----13---------13--------13--|--------13--------13-----13--|
|--------14--------14---------|-14--------14---------14-----|
|--8-(8)--8-(8)--8-(8)--8-(8)-|--8-(8)--8-(8)--8-(8)--8-(8)-|
|-----------------------------|-----------------------------|
|--8-(8)--8-(8)--8-(8)--8-(8)-|--8-(8)--8-(8)--8-(8)--8-(8)-|


|-------------------------------------|-------------------------------||
|-------------------------------------|-------------------------------||
|-12--12---12---12---12---12--12--12--|-12-12-12-12-12--12---12---12--||
|-10--10---10---10---10---10--10--10--|-10-10-10-10-10--10---10---10--||
|-10--10---10---10---10---10--10--10--|-10-10-10-10-10--10---10---10--||
|-------------------------------------|-------------------------------||

|
| E E E E E E E E E E E E E E E E


|-12------------12------------13------|----13-------10----------------||
|-----13-------------13-----------13--|-------13--------13--------13--||
|----------14-------------14----------|-14-------14----------14-------||
|-------------------------------------|-------------------------------||
|-10-(10)-(10)-(10)-(10)-(10)-10-(10)-|-------------10-(10)-(10)-(10)-||
|-------------------------------------|-------------------------------||

Bridge
>
W +W +W +W


|------------|------------|------------|------------|
|------------|------------|------------|------------|
|------------|------------|------------|------------|
|------------|------------|------------|------------|
|--0---------|-(0)--------|-(0)--------|-(0)--------|
|--0---------|-(0)--------|-(0)--------|-(0)--------|

|
| H H W W W


|-12---------|------------|------------|------------|
|-17---------|------------|------------|------------|
|-21---------|------------|------------|------------|
|------------|------------|------------|------------|
|------------|------------|------------|------------|
|------------|------------|------------|------------|

| W +W +E +W


|-----------|-------------||-----|-------------------------|
|-----------|-------------||-----|-------------------------|
|-----------|-------------||-----|-------------------------|
|--0--------|--(0)--------||-(0)-|-(0)---------------------|
|--0--------|--(0)--------||-(0)-|-(0)---------------------|
|--0--------|--(0)--------||-(0)-|-(0)---------------------|

|
| Gtr III
| W +W W W


|-12--------|-(12)--------||-----|-------------------------|
|-----------|-------------||-----|-------------------------|
|-----------|-------------||-----|-------------------------|
|-----------|-------------||-----|-------------------------|
|-----------|-------------||-----|-------------------------|
|-----------|-------------||-----|-------------------------|

+E E Q E E E E +E E E E E E E E


|---------------------|--------------------------|
|---------------------|--------------------------|
|-(12)-12-9----9-10---|-----10-9-10-9-(9)----12--|
|------------0------0-|-(0)------------x--10-----|
|---------------------|--------------------------|
|---------------------|--------------------------|

|
| +W +W


|---------------------|--------------------------|
|---------------------|--------------------------|
|---------------------|--------------------------|
|--(0)----------------|-(0)----------------------|
|--(0)----------------|-(0)----------------------|
|--(0)----------------|-(0)----------------------|

|
| W W


|---------------------|--------------------------|
|---------------------|--------------------------|
|---------------------|--------------------------|
|---------------------|--------------------------|
|---------------------|--------------------------|
|---------------------|--------------------------|

+E E Q E E E E +E E E E E E E E


|---------------------|-------------------------|
|---------------------|-------------------------|
|-(12)-12-9----9-10---|-----10-9-10-9-(9)----12-|
|------------0------0-|-(0)------------x--10----|
|---------------------|-------------------------|
|---------------------|-------------------------|

+E E Q E E E E +E E E E E E E E


|---------------------|-------------------------|
|---------------------|-------------------------|
|-(12)-12-9----9-10---|-----10-9-10-9-(9)----12-|
|------------0------0-|-(0)------------x--10----|
|---------------------|-------------------------|
|---------------------|-------------------------|

+E E Q E E E E +E E E E E E E E


|----------------------|--------------------------|
|--------------10------|--------------------------|
|-(12)-12-9-------9-10-|-(10)-10-9-10-9-(9)----12-|
|------------0---------|-----------------x--10----|
|----------------------|--------------------------|
|----------------------|--------------------------|

|
| Gtr V
| H. E E +E E E E E Q E


|----------------------|--------------------------|
|----------------------|------10-8-10-8--------11-|
|----------------------|-----------------9--------|
|--------------------0-|--(0)---------------------|
|----------------------|--------------------------|
|----------------------|--------------------------|

|
| Gtr III
| H. E E +E Q Q Q E


|----------------------|--------------------------|
|----------------------|--------------------------|
|-------------------10-|-(10)-10---10---10-----12-|
|-------------------15-|-(15)-15---15---15-----17-|
|----------------------|--------------------------|
|----------------------|--------------------------|

+E E Q E E E E +E E E E E E E E


|-------------------------|--------------------------|
|----------------10-------|--------------------------|
|-(12)-12-9----------9-10-|-(10)-10-9-10-9-(9)----12-|
|--------------0----------|-----------------x--10----|
|-------------------------|--------------------------|
|-------------------------|--------------------------|

|
| +E E Q E E E E +E E E E E Q E


|-------------------------|--------------------------|
|-(11)-11-8-------8-10----|------10-8-10-8--------11-|
|-------------------------|-----------------9--------|
|--------------0--------0-|--(0)---------------------|
|-------------------------|--------------------------|
|-------------------------|--------------------------|

|
| +E Q Q Q E +E Q Q Q E


|-------------------------|--------------------------|
|-------------------------|--------------------------|
|-(12)-12----9----9----10-|-(10)-10---10---10-----12-|
|-(17)-17---14---14----15-|-(15)-15---15---15-----17-|
|-------------------------|--------------------------|
|-------------------------|--------------------------|

+E E Q E E E E +E E E E E E E E


|-------------------------|--------------------------|
|-------------------------|--------------------------|
|-(12)-12-9-------9-10----|------10-9-10-9-(9)----12-|
|--------------0--------0-|--(0)------------x--10----|
|-------------------------|--------------------------|
|-------------------------|--------------------------|

|
| +E E Q E E E E +E E E E E Q E


|-------------------------|--------------------------|
|-(11)-11-8-------8-10----|------10-8-10-8--------11-|
|-------------------------|-----------------9--------|
|--------------0--------0-|--(0)---------------------|
|-------------------------|--------------------------|
|-------------------------|--------------------------|

|
| +E Q Q Q E +E Q Q Q E


|-------------------------|--------------------------|
|-------------------------|--------------------------|
|-(12)-12----9----9--

Jika kamu pingin belajar mainin lagunya In Fear and Faith, termasuk chord gitar Live Love Die.
Kamu bisa belajar dengan mengikuti kursus, masuk sekolah musik, datengin guru untuk les privat bahkan bisa juga dengan cara otodidak.
Untuk dasarnya kamu bisa belajar C major, A major, G major, E major, and D major. Selain kunci tadi, nanti bisa dimodif dikit.

Jangan lupa selalu latihan untuk mainin gitar lagu Live Love Die. Awal-awal mungkin susah, semoga setelah terbiasa, nanti kamu bisa menguasai semua lagu In Fear and Faith

Leave a Reply

Your email address will not be published.