Chord Gitar Mercedes Baby – House of Heroes

Posted on

Jika kamu nyariin kunci chord gitar untuk lagu Mercedes Baby, kamu berada di halaman yang tepat.
Kamu bisa mainin Mercedes Baby yang dinyanyiin oleh House of Heroes pake gitar yang kamu suka.

Chord lagu Mercedes Baby punya ritme dan masuk dalam album Say No More (2006).
Di website ini, kamu juga bisa dapetin chord lain, seperti chord lagu jazz, chord lagu country, pop, rock, dll.

Kunci Gitar Mercedes Baby oleh House of Heroes


Preview Tab
play it the second time only and let it resonate

Intro

Gtr 1


e ------------------------------------------------------------------|
b ------------------------------------------------------------------|
g ------------------------------------------------------------------|
d -0----------------0----------5---9----------------9-----------5-0-| X2
a -0----------------0----------5---9----------------9-----------5-0-|
d -0----------------0----------5---9----------------9-----------5-0-|

Gtr2


e -------------------------------------------------------------------|
b -----7--5-------------7--5------------7--5------------7--5---------|
g -----------7-7--------------7-7-------------7-7-------------7-7----|
d -0-7--0--0--------0-7--0--0-------0-7--0--0-------0-7--0--0--------| X2
a -------------------------------------------------------------------|
d -------------------------------------------------------------------|

Little thing with bass
g-7-6-6-|


d-------| X5
a-------|
d-------|

This part below is before entering the rest of the intro play
aong with the audio to get the struming and time ITS THE SAME CHORD PROGRESSION THROUGH
PART THOUGH THE ORDER CHANGES SO KEEP AN EYE OUT FOR THE CHANGE

[C#-D]
In this part of the song you might notice a left righ mono split sound you can achieve
(Last option only available if you play through a PA system)


e --------------------------------------------------------------------------|
b --------------------------------------------------------------------------|
g -11-11-11-10-10-10-11-11-11-12-12-12-9-9-11-11-11-14-14-14-11-11-11-14-14-|
d --------------------------------------------------------------------------|
a --------------------------------------------------------------------------|
d --------------------------------------------------------------------------|
e -------------------------------------------------------------------------|
b ---------15-14-------------------------------------------15-14-----------|
g -14-12-12------11-11-11-9-9-9-11-11-11-12-12-12-9-9-11-12-------11-11-11-|
d -------------------------------------------------------------------------|
a -------------------------------------------------------------------------|
d -------------------------------------------------------------------------|
e -------------------------------------------------------------------------|
b -------------------------------------------------------------------------|
g -14-14-14-11-11-11-14-14-14-12-12----------------------------------------|
d -------------------------------------------------------------------------|
a -------------------------------------------------------------------------|
d -------------------------------------------------------------------------|

Little thing with bass
g-7-6-6-|


d-------| hear the song to find out how meany times b4 it starts
a-------|
d-------|

hold loosely to my hand cause its a long long road
and you dont know and i dont know where it goes
or where it ends
its a long long road, a long long road

Chorus
Get back on the front page baby
take turns driving your mercedes

get back
you dont even know you can
get back on the runway honey
do it for love not for money

get back
you dont even know if you can

(REP 2 TIMES)
its complicated
its long and winded
i’ve been frustrated
but i know you can make it

Chorus

Get back on the front page baby
take turns driving your mercedes

get back
you dont even know you can
get back on the runway honey
do it for love not for money
get back you dont even know you can
Get back on the front page baby
im yours if you dont say mabe
get back you dont even know you can


I DONT PLAY THE END SICE ITS LONG JA JA BUT I HOPE THIS IS OF GOOD HELP GOD BLESS YOU

Jika kamu pingin belajar mainin lagunya House of Heroes, termasuk chord gitar Mercedes Baby.
Kamu bisa belajar dengan mengikuti kursus, masuk sekolah musik, datengin guru untuk les privat bahkan bisa juga dengan cara otodidak.
Untuk dasarnya kamu bisa belajar C major, A major, G major, E major, and D major. Selain kunci tadi, nanti bisa dimodif dikit.

Jangan lupa selalu latihan untuk mainin gitar lagu Mercedes Baby. Awal-awal mungkin susah, semoga setelah terbiasa, nanti kamu bisa menguasai semua lagu House of Heroes

Leave a Reply

Your email address will not be published.