Chord Gitar Mi Padre está en lo secreto – Hermana Glenda

Posted on

Jika kamu nyariin kunci chord gitar untuk lagu Mi Padre está en lo secreto, kamu berada di halaman yang tepat.
Kamu bisa mainin Mi Padre está en lo secreto yang dinyanyiin oleh Hermana Glenda pake gitar yang kamu suka.

Chord lagu Mi Padre está en lo secreto punya ritme dan masuk dalam album .
Di website ini, kamu juga bisa dapetin chord lain, seperti chord lagu jazz, chord lagu country, pop, rock, dll.

Kunci Gitar Mi Padre está en lo secreto oleh Hermana Glenda


-------------------------------------------------------------------------------

Mi Padre est en lo secreto – Hermana Glenda


-------------------------------------------------------------------------------

Tabbed by: kendoka7
Email: [email protected]

Hermana Glenda’s official website: http://www.hnaglenda.org/

Tuning: Standard (e,B,G,D,A,E)

Capo on 3rd fret

Chords (relative to capo):


e|--0--|--0--|--0--|--2--|--4--|--4--|
B|--0--|--0--|--2--|--0--|--5--|--4--|
G|--1--|--2--|--2--|--2--|--6--|--4--|
D|--2--|--2--|--2--|--1--|--6--|--6--|
A|--2--|--2--|--0--|--2--|--4--|--6--|
E|--0--|--0--|-----|-----|-----|--4--|

Basic intro arpeggio:


e|--------0------------0------------0------------0------|
B|------0---0----2---2---2--------0---0--------2---2----|
G|----1-------1----2-------2----1-------1----2-------2--|
D|------------------------------------------------------|
A|--2------------0------------2------------0------------|
E|------------------------------------------------------|

Basic Chord Progression:


e|--0---0---0---0--0--0--0-0--|
B|--0---2---0---0--0--0--0-0--|
G|--1---2---1---2--2--1--2-1--|
D|--2---2---2---2--2--2--2-2--|
A|--2---0---2---2--2--2--2-2--|
E|--0-------0---0--0--0--0-0--|

Mi Padre est en lo secreto,[Esus-E-Esus-E]
mi Padre est en lo secreto.[Esus-E-Esus-E]
Mi Padre est en lo secreto,[Esus-E-Esus-E]
mi Padre est en lo secreto.
Mi padre est en lo secreto…

(End on E)

(Repeat the above progression for the rest of the song.
I reccommend using arpeggio and improvising a little for
most of the song, but you can also strum the chords too.)

| / slide up
| slide down
| h hammer-on
| p pull-off
| ~ vibrato
| + harmonic
| x Mute note

Jika kamu pingin belajar mainin lagunya Hermana Glenda, termasuk chord gitar Mi Padre está en lo secreto.
Kamu bisa belajar dengan mengikuti kursus, masuk sekolah musik, datengin guru untuk les privat bahkan bisa juga dengan cara otodidak.
Untuk dasarnya kamu bisa belajar C major, A major, G major, E major, and D major. Selain kunci tadi, nanti bisa dimodif dikit.

Jangan lupa selalu latihan untuk mainin gitar lagu Mi Padre está en lo secreto. Awal-awal mungkin susah, semoga setelah terbiasa, nanti kamu bisa menguasai semua lagu Hermana Glenda

Leave a Reply

Your email address will not be published.