Chord Gitar Mooch – June of 44

Posted on

Jika kamu nyariin kunci chord gitar untuk lagu Mooch, kamu berada di halaman yang tepat.
Kamu bisa mainin Mooch yang dinyanyiin oleh June of 44 pake gitar yang kamu suka.

Chord lagu Mooch punya ritme dan masuk dalam album .
Di website ini, kamu juga bisa dapetin chord lain, seperti chord lagu jazz, chord lagu country, pop, rock, dll.

Kunci Gitar Mooch oleh June of 44


Standard Tuning

g1 (after the first extended string picking)


e-12---------12--------12------11----------11----------11-------9--------9---------9-----|
b-----10---------10--------10------10----------10----------10-----10-------10--------10--|
g---------9----------9--------------------9-----------9-------------------9--------9-----|
d----------------------------------------------------------------------------------------|
a----------------------------------------------------------------------------------------|
e----------------------------------------------------------------------------------------|
e-------------9---------------------------------9-----------9------------------9----------9--|
b-12----12-----12-----12-10------10----------10----------10-----10--------10-----------------|
g-----9--------------9----------12------12----------12----------12----12---------12----------|
d--------------------------------------------------------------------------------------------|
a--------------------------------------------------------------------------------------------|
e--------------------------------------------------------------------------------------------|
e-----------------9-----------9-------------------9------------9----|
b------10-----------10---------10-----10----------10----------------|
g-12------12-----------12---------12-----12----------12-------------|
d-------------------------------------------------------------------|
a-------------------------------------------------------------------|
e-------------------------------------------------------------------|

main riff


e---------14----------14------------------------------------------------------------|
b-----14-----17----------17---------------------------------------------------------|
g-----------------16----------14-----------------13-----------13--------------------|
d----------------------------------14-----------------14-----------14---------------|
a-0------------------------------------12---12-----------12-----------12-14---------|
e--------------------------------------------13-------------------------------------|
e------------------------------------------|
b------------------------------------------|
g-10----------------------10---------------|
d-----14--------14-----------14------------|
a---------0-15------15-----------15--------|
e------------------------------------------|

1st Change


e-------------------------------------------------------|
b-------------------------------------------------------|
g-------------------------------------------------------|
d----------9--------7-------------12----------12--------|
a-------0----0-----------------0------0-----------------|
e-s10----------10------9h10-----------10----------------|

2nd Change


e---------------------------------------------------------|
b---------------------------------------------------------|
g---------0-14---------12---------------------------------|
d------0--------0-----------0------12-10------------------|
a-s10-------------10----------10----------14-12-----------|
e---------------------------------------------------------|

3rd Change


e-------------------------------------------------------------------|
b-------------------------------------------------------------------|
g----------------0----------0--------------------0-----------0------|
d-------------------------------------------------------------------|
a------9------------9-----------9-------9-----------9---------------|
e-10-----10----------10-----------10----10----------10--------------|

go back to main riff, and then opening riff, then
4th Change(palm muted, then open)


e------------------------------------------------------------------|
b------------------------------------------------------------------|
g-2-2-2-2-2-5-5-X-2-2-2-2-2-5-5-X-2-2-2-2-2-5-5-X-2-2-2-2-2-5-5-X--|
d-2-2-2-2-2-2-2-X-2-2-2-2-2-2-2-X-2-2-2-2-2-2-2-X-2-2-2-2-2-2-2-X--| x4
a-0-0-0-0-0-0-0-X-0-0-0-0-0-0-0-X-0-0-0-0-0-0-0-X-0-0-0-0-0-0-0-X--|
e------------------------------------------------------------------|
e---------------------|
b---------------------|
g-2-2-2-2-5-5-X-------|
d-2-2-2-2-3-3-X-------| x8
a-0-0-0-0-0-0-X-------|
e---------------------|

then back to the 1st change and that?s the end.

Now Ansigod’s tab . . . . .

Numbers in () are designated harmonics on that fret

Tune low E string to D (D A D G B E)

1


|-12-------12-------12----|-11-------11-------11----|-------------|
|----10-------10-------10-|----10-------10-------10-|-------------|
|-------9--------9--------|-------9--------9--------|-------------|
|-------------------------|-------------------------|-------------|
|-------------------------|-------------------------|-------------|
|-------------------------|-------------------------|-------------|
|-9--------9--------9-----|----------9--------------|-------------|
|----10-------10-------10-|-12----12----12----12-10-|-------------|
|-------9--------9--------|----9-----------9--------|-------------|
|-------------------------|-------------------------|-------------|
|-------------------------|-------------------------|-------------|
|-------------------------|-------------------------|-------------|
|----------9--------9--------------9--------9--|------------------|
|----10-------10-------10----10-------10-------|------------------|
|-12----12-------12-------12----12-------12----|------------------|
|----------------------------------------------|------------------|
|----------------------------------------------|------------------|
|----------------------------------------------|------------------|

2


|-----9-----7-------------------------------------------------------|
|-------------------10---------9-----9---------6-------------6------|
|--------9------9------9---------9-----9---------9------9------9----|
|-7--------7------7------7-7-------7-----7-9-------0-10---10-----10-|
|-0------------------------8----------------------------------------|
|-------------------------------------------------------------------|


|-----------------------------------------------------------------|
|-----------------------------------------------------------------|
|----------------------------------------------5-------------5----|
|----------------------6---7-----------------------0------------0-|
|-0---16---7--------7---7-----------------3---------5------------|
|-----------------------------------------------------------------|

3


|----------------------------------------------------------------------|
|----------------------------------------------------------------------|
|-------4------2----------4------2----------4------2--------4-----2----|
|---------0------0----------0------0----------0------0--------0--------|
|-3/5-------0-------3/5-------0-------3/5-------0-------3/5-----0------|
|-0---0-------------0---0-------------0---0-------------0--------------|


|-----------------------------------------------------------------------|
|-----------------------------------------------------------------------|
|-----------------------------------------------------------------------|
|-----7-------9-----12p11----9------------7-------9-----12p11----9------|
|-3/5---5-5/7---7/9-------12-----12---3/5---5-5/7---7/9-------12-----12-|
|-----------------------------------------------------------------------|


|----------------------------------------------------------------------|
|----------------------------------------------------------------------|
|-------4------2----------4------2----------7------2-------------------|
|---------0------0----------0------0----------0------0-----------------|
|-3/5-------0-------3/5-------0-------3/5-------0----------------------|
|-0---0-------------0---0-------------0---0----------------------------|


|----------------------------------------------------------------------|
|----------------------------------------------------------------------|
|-------------------------------------------7--------------------------|
|-----7-------9-----12p11----9------------7--------8-------------------|
|-3/5---5-5/7---7/9-------12-----12---3/5------------------------------|
|----------------------------------------------------------------------|

3 (not 100% sure on this small part)


|-------------------------------------------------------------------|
|--------10-------8-----------------------10-------8----------------|
|--------------0-------0--7---------------------0-------0--7--------|
|-----------0-------0-------10-9-7-----------0-------0-------10-9-7-|
|-5/9-10---------------------------5/9-10---------------------------|
|-0--------------------------------0--------------------------------|


|-------------------------------------------------------------------|
|-------------------------------------------------------------------|
|-------------------------------------------------------------------|
|----------------------------------------------------12-12-12-9-9-9-|
|--------------------------------------------8/10-10----------------|12
|-------------------------------------------------------------------|

4


|----------------------------------------------------------------|
|----------------------------------------------------------------|
|-------0-----0---------0-----0---------0-----0---------0-----0--|
|---4-----4-----4---4-----4---------4-----4-----4---4-----4------|
|-----5-----5---------5-----5---------5-----5---------5-----5----|
|-0---------------0---------------0---------------0--------------|

^repeat


|-----------------------------------------------------------------|
|-----------------------------------------------------------------|
|-------0-----0---------0-----0---------0-----0---------0-----0---|
|---4-----4-----4---4-----4-----4---4-----4-----4---4-----4-----4-|
|-----5-----5---------5-----5---------5-----5---------5-----5-----|
|-0---------------0---------------0---------------0---------------|

^repeat

Riff changes slightly for the next 2 measures over the spoken part
and then goes back to the above.

Repeat 2 with distortion

Repeat 1:


|-12-------12-------12----|-11-------11-------11----|-------------|
|----10-------10-------10-|----10-------10-------10-|-------------|
|-------9--------9--------|-------9--------9--------|-------------|
|-------------------------|-------------------------|-------------|
|-------------------------|-------------------------|-------------|
|-------------------------|-------------------------|-------------|


|-----------------------------------------------------------------|
|-----------------------------------------------------------------|
|-----------------------------------------------------------------|
|-----------------------------------------------------------------|
|-----------------------------------------------------------------|
|-----------------------------------------------------------------|


|-9--------9--------9-----|----------9--------------|-------------|
|----10-------10-------10-|-12----12----12----12-10-|-------------|
|-------9--------9--------|----9-----------9--------|-------------|
|-------------------------|-------------------------|-------------|
|-------------------------|-------------------------|-------------|
|-------------------------|-------------------------|-------------|

G2 (second time only)


|----------9--------------|---------------------------------------|
|-------7-----------------|---------------------------------------|
|-7h-9--------------------|---------------------------------------|
|-------------------------|---------------------------------------|
|-------------------------|---------------------------------------|
|-------------------------|---------------------------------------|


|----------9--------9--------------9--------9--|------------------|
|----10-------10-------10----10-------10-------|------------------|
|-12----12-------12-------12----12-------12----|------------------|
|----------------------------------------------|------------------|
|----------------------------------------------|------------------|
|----------------------------------------------|------------------|


|----------9--------9--------------9--------9---------------------|
|-------7-----7--------7--------7-----7---------------------------|
|-7h-9-----------9--------7h-9-----------9------------------------|
|-----------------------------------------------------------------|
|-----------------------------------------------------------------|
|-----------------------------------------------------------------|

5

G1 (enter after first measure of this riff at 5:11 with muted strums)


|-----------------------------------------------------------------|
|-5-X-X--5---5--5--5-X-X--5---5--5--------------------------------|
|-2-X-X--2---5--5--2-X-X--2---5--5--------------------------------|
|-2-X-X--2---2--2--2-X-X--2---2--2--------------------------------|
|-----------------------------------------------------------------|
|-----------------------------------------------------------------|


|-----------------------------------------------------------------|
|-----------------------------------------------------------------|
|-7------9---10-10-----9------------------------------------------|
|-7------7----------7--7--7---------------------------------------|
|---------------------------0-/7-------------------------------|
|-----------------------------------------------------------------|

G1 (distortion)


|-----------------------------------------------------------------|
|-5-X-X--5---5--5--5-X-X--5---5--5--------------------------------|
|-2-X-X--2---5--5--2-X-X--2---5--5--------------------------------|
|-2-X-X--2---2--2--2-X-X--2---2--2--------------------------------|
|-----------------------------------------------------------------|
|-----------------------------------------------------------------|

G2 (distortion)


|-----------------------------------------------------------------|
|-----------------------------------------------------------------|
|-7------9---10-10-----9------------------------------------------|
|-7------7---7--7---7--7--7---/7--7-7--------------------------|
|---------------------------0-/7--7-7--------------------------|
|-----------------------------------------------------------------|

Repeat 3 with distortion

Jika kamu pingin belajar mainin lagunya June of 44, termasuk chord gitar Mooch.
Kamu bisa belajar dengan mengikuti kursus, masuk sekolah musik, datengin guru untuk les privat bahkan bisa juga dengan cara otodidak.
Untuk dasarnya kamu bisa belajar C major, A major, G major, E major, and D major. Selain kunci tadi, nanti bisa dimodif dikit.

Jangan lupa selalu latihan untuk mainin gitar lagu Mooch. Awal-awal mungkin susah, semoga setelah terbiasa, nanti kamu bisa menguasai semua lagu June of 44

Leave a Reply

Your email address will not be published.