Chord Gitar Moonlight – Dear and the Headlights

Posted on

Jika kamu nyariin kunci chord gitar untuk lagu Moonlight, kamu berada di halaman yang tepat.
Kamu bisa mainin Moonlight yang dinyanyiin oleh Dear and the Headlights pake gitar yang kamu suka.

Chord lagu Moonlight punya ritme Ballade dan masuk dalam album Falling Into Infinity (1997).
Di website ini, kamu juga bisa dapetin chord lain, seperti chord lagu jazz, chord lagu country, pop, rock, dll.

Kunci Gitar Moonlight oleh Dear and the Headlights


As recorded by Labyrinth
(From the 1998 Album RETURN TO HEAVEN DENIED)

Transcribed by Pete (Delirium_Veil)

Words by Olaf Thorsen Music by Labyrinth
Arranged by Labyrinth

Gtr I (E A D G B E) – ‘Olaf Thorsen’
Gtr II (E A D G B E) – ‘Anders Rain’
Gtr III (E A D G B E) – ‘Olaf Thorsen’
Gtr IV (E A D G B E) – ‘Anders Rain’
Gtr V (E A D G B E) – ‘Guitar fills’

Intro
Q160
[4/4] Gtr I
W E E E E E E E E E E E E E E E E E E E E E E E E


|----------|-5-----5-----5---|-5-----5-----5---|-5-----5-----5---|
|----------|---2-3---2-3---2-|---2-3---2-3---2-|---2-3---2-3---2-|
|----------|-----------------|-----------------|-----------------|
|----------|-----------------|-----------------|-----------------|
|----------|-----------------|-----------------|-----------------|
|----------|-----------------|-----------------|-----------------|

|
| Gtr II
| W E E E E E E E E E E E E E E E E E E E E E E E E


|----------|-9-----9-----9---|-9-----9-----9---|-9-----9-----9---|
|----------|---5-7---5-7---5-|---5-7---5-7---5-|---5-7---5-7---5-|
|----------|-----------------|-----------------|-----------------|
|----------|-----------------|-----------------|-----------------|
|----------|-----------------|-----------------|-----------------|
|----------|-----------------|-----------------|-----------------|


|-5-----5-----5---|-5-----5-----5---|-5-----5-----5---|
|---2-3---2-3---2-|---2-3---2-3---2-|---2-3---2-3---2-|
|-----------------|-----------------|-----------------|
|-----------------|-----------------|-----------------|
|-----------------|-----------------|-----------------|
|-----------------|-----------------|-----------------|

|
| E E E E E E E E E E E E E E E E E E E E E E E E


|-9-----9-----9---|-9-----9-----9---|-9-----9-----9---|
|---5-7---5-7---5-|---5-7---5-7---5-|---5-7---5-7---5-|
|-----------------|-----------------|-----------------|
|-----------------|-----------------|-----------------|
|-----------------|-----------------|-----------------|
|-----------------|-----------------|-----------------|

Gtr III


|-5-----5-----5---|--5------5-----5---|
|---2-3---2-3---2-|-----2-3---2-3---2-|
|-----------------|-------------------|
|-----------------|-------------------|
|-----------------|-------------------|
|-----------------|-------------------|

|
| Gtr IV
| E E E E E E E E E E E E E E E E


|-----------------|-------------------|
|-----------------|-------------------|
|-----------------|-------------------|
|-7-----7-----7---|--7------7-----7---|
|---4-5---4-5---4-|-----4-5---4-5---4-|
|-----------------|-------------------|

|
| Gtr V
| 1
| ~
| W +W


|-----------------|-------------------|
|-----------------|-------------------|
|-----------------|-------------------|
|-----------------|-------------------|
|-----------------|-------------------|
|-7---------------|-(7)---------------|


|--5-------5-----5---|---5------5-----5----|
|------2-3---2-3---2-|------2-3---2-3---2--|
|--------------------|---------------------|
|--------------------|---------------------|
|--------------------|---------------------|
|--------------------|---------------------|

|
| E E E E E E E E E E E E E E E E


|--------------------|---------------------|
|--------------------|---------------------|
|--------------------|---------------------|
|--7-------7-----7---|---7------7-----7----|
|------4-5---4-5---4-|------4-5---4-5---4--|
|--------------------|---------------------|

|
| 1/ 1
| W +W


|--------------------|---------------------|
|-19-----------------|-(19)----------------|
|--------------------|---------------------|
|--------------------|---------------------|
|--------------------|---------------------|
|--------------------|---------------------|


|---5-----5-----5---|--5-----5------5---|
|-----2-3---2-3---2-|----2-3----2-3---2-|
|-------------------|-------------------|
|-------------------|-------------------|
|-------------------|-------------------|
|-------------------|-------------------|

|
| E E E E E E E E E E E E E E E E


|-------------------|-------------------|
|-------------------|-------------------|
|-------------------|-------------------|
|---7-----7-----7---|--7-----7------7---|
|-----4-5---4-5---4-|----4-5----4-5---4-|
|-------------------|-------------------|

|
| ~~~~~~~~~~~~~~~~~~~~~~~~~~~~~~~~~~~~~
| W H H


|-------------------|-------------------|
|-/12---------------|-14-------15-------|
|-------------------|-------------------|
|-------------------|-------------------|
|-------------------|-------------------|
|-------------------|-------------------|


|--5------5-------5-----|--5-----5-----5----|
|-----2-3---2-3-------2-|----2-3---2-3---2--|
|-----------------------|-------------------|
|-----------------------|-------------------|
|-----------------------|-------------------|
|-----------------------|-------------------|

|
| E E E E E E E E E E E E E E E E


|-----------------------|-------------------|
|-----------------------|-------------------|
|-----------------------|-------------------|
|--7------7-------7-----|--7-----7-----7----|
|-----4-5---4-5-------4-|----4-5---4-5---4--|
|-----------------------|-------------------|

|
|~~~~~ ~~
| H. +E E W


|-17------------(17)-19-|-17----------------|
|-----------------------|-------------------|
|-----------------------|-------------------|
|-----------------------|-------------------|
|-----------------------|-------------------|
|-----------------------|-------------------|



|-17-------17-------17----|-17-------17-------17s19-|
|----14-15----14-15----14-|----14-15----14-15-------|
|-------------------------|-------------------------|
|-------------------------|-------------------------|
|-------------------------|-------------------------|
|-------------------------|-------------------------|

|
| E E E E E E E E E E E E E E E E


|-14-------14-------14----|-14-------14-------14s15-|
|----10-12----10-12----10-|----10-12----10-12-------|
|-------------------------|-------------------------|
|-------------------------|-------------------------|
|-------------------------|-------------------------|
|-------------------------|-------------------------|

|
| W W


|-------------------------|-------------------------|
|-------------------------|-------------------------|
|-------------------------|-------------------------|
|--9----------------------|--7----------------------|
|--9----------------------|--7----------------------|
|--7----------------------|--5----------------------|



|-17-------17-------17----|-17-------17-------17-----|
|----14-15----14-15----14-|----14-15----14-15----14--|
|-------------------------|--------------------------|
|-------------------------|--------------------------|
|-------------------------|--------------------------|
|-------------------------|--------------------------|

|
| E E E E E E E E E E E E E E E E


|-14-------14-------14----|-14-------14-------14-----|
|----10-12----10-12----10-|----10-12----10-12----10--|
|-------------------------|--------------------------|
|-------------------------|--------------------------|
|-------------------------|--------------------------|
|-------------------------|--------------------------|

|
| W H H


|-------------------------|--------------------------|
|-------------------------|--------------------------|
|-------------------------|--7-----------------------|
|--5----------------------|--7-----------7-----------|
|--5----------------------|--5-----------7-----------|
|--3----------------------|--------------5-----------|



|-17-------17-------17----|-17-------17-------17s19-|
|----14-15----14-15----14-|----14-15----14-15-------|
|-------------------------|-------------------------|
|-------------------------|-------------------------|
|-------------------------|-------------------------|
|-------------------------|-------------------------|

|
| E E E E E E E E E E E E E E E E


|-14-------14-------14----|-14-------14-------14s15-|
|----10-12----10-12----10-|----10-12----10-12-------|
|-------------------------|-------------------------|
|-------------------------|-------------------------|
|-------------------------|-------------------------|
|-------------------------|-------------------------|

|
| W W


|-------------------------|-------------------------|
|-------------------------|-------------------------|
|-------------------------|-------------------------|
|-------------------------|-------------------------|
|--5----------------------|--4----------------------|
|--7----------------------|--5----------------------|



|-17-------17-------17----|-17-------17-------17-----|
|----14-15----14-15----14-|----14-15----14-15----14--|
|-------------------------|--------------------------|
|-------------------------|--------------------------|
|-------------------------|--------------------------|
|-------------------------|--------------------------|

|
| E E E E E E E E E E E E E E E E


|-14-------14-------14----|-14-------14-------14-----|
|----10-12----10-12----10-|----10-12----10-12----10--|
|-------------------------|--------------------------|
|-------------------------|--------------------------|
|-------------------------|--------------------------|
|-------------------------|--------------------------|

|
| W H H


|-------------------------|--------------------------|
|-------------------------|--------------------------|
|-------------------------|--7-----------------------|
|-------------------------|--7-----------7-----------|
|--2----------------------|--5-----------7-----------|
|--3----------------------|--------------5-----------|

Verse
Gtrs III, IV


PM------------------------| PM------------------------|

E S S S S S S S S S S S S S S E S S S S S S S S S S S S S S


||--------------------------------|--------------------------------|
||o-------------------------------|--------------------------------|
||--------------------------------|--------------------------------|
||--------------------------------|--------------------------------|
||o-9-----------------------------|-7------------------------------|
||--7-7-7-7-7-7-7-7-7-7-7-7-7-7-7-|-5-5-5-5-5-5-5-5-5-5-5-5-5-5-5--|


PM------------------------|

E S S S S S S S S S S S S S S H H


|-------------------------------|------------||
|-------------------------------|-----------o||
|-------------------------------|-7----------||
|-------------------------------|-7----7-----||
|-5-----------------------------|-5----7----o||
|-3-3-3-3-3-3-3-3-3-3-3-3-3-3-3-|------5-----||

Pre-Chorus
$
N.C.(F#5) B5


PM--| PM| PM--| PM| PM------------------------|

E S S E E E E E E E S S E E E E E E E S S S S S S S S S S S S S S


||--------------------|-------------------|-------------------------------|
||o-------------------|-------------------|-------------------------------|
||--------------------|-------------------|-------------------------------|
||--4-------4-----4s5-|-4-------4-----4s5-|-4-----------------------------|
||o-------------------|-------------------|-2-2-2-2-2-2-2-2-2-2-2-2-2-2-2-|
||----2-2-2---2-2-----|---2-2-2---2-2-----|-------------------------------|

[E5/B]W [G5/D]H [F#5/C#]H E E H.


|----------|------------||-----------||
|----------|-----------o||-----------||
|-4--------|-7----6-----||-6---------||
|-2--------|-5----4-----||-4---------||
|-2--------|-5----4----o||-4---------||
|----------|------------||-----------||

Chorus
$$
PM—————————
W +W E S S S S S S S S S S S S S S
|———-|————|——————————-|
|———-|————|——————————-|
|-4——–|-(4)——–|-2—————————–|
|-4——–|-(4)——–|-2—————————–|
|-2——–|-(2)——–|-0-0-0-0-0-0-0-0-0-0-0-0-0-0-0-|
|———-|————|——————————-|

——————————-|
S S S S S S S S S S S S S S S S
|———————————|
|———————————|
|———————————|
|———————————|
|-0-0-0-0-0-0-0-0-0-0-0-0-0-0-0-0-|
|———————————|

PM————————|
W +W E S S S S S S S S S S S S S S W
|———-|————|——————————-|——|
|———-|————|——————————-|——|
|———-|————|-7—————————–|-2—-|
|-2——–|-(2)——–|-7—————————–|-2—-|
|-2——–|-(2)——–|-5-5-5-5-5-5-5-5-5-5-5-5-5-5-5-|-0—-|
|-0——–|-(0)——–|——————————-|——|

PM—————————
E S S S S S S S S S S S S S S
|——————————-|
|——————————-|
|-4—————————–|
|-4—————————–|
|-2-2-2-2-2-2-2-2-2-2-2-2-2-2-2-|
|——————————-|

——————————-|
S S S S S S S S S S S S S S S S W +W
|———————————|———-|——–|
|———————————|———-|——–|
|———————————|-2——–|-(2)—-|
|———————————|-2——–|-(2)—-|
|-4-5-4-2-4-5-4-2-4-5-4-2-4-5-4-2-|-0——–|-(0)—-|
|———————————|———-|——–|

PM—————————
E S S S S S S S S S S S S S S
|——————————-|
|——————————-|
|——————————-|
|-2—————————–|
|-2—————————–|
|-0-0-0-0-0-0-0-0-0-0-0-0-0-0-0-|

To Dbl. Coda
——————————-|
S S S S S S S S S S S S S S S S W W
|———————————|———-|——-||
|———————————|———-|——-||
|———————————|-7——–|-2—–||
|———————————|-7——–|-2—–||
|———————————|-5——–|-0—–||
|-2-3-2-0-2-3-2-0-2-3-2-0-2-3-2-0-|———-|——-||

N.C.(B5)
PM—-| PM—-|
E S S E E E S S E E E E E Q E +E E
||———————-|——————|
||o———————|—2-3-2———-|
||–4———4———|-4——–4-(4)-2-|
||———————-|——————|
||o—2-2-2-2—2-2-2-2-|——————|
||———————-|——————|

PM—-| PM—-|
E S S E E E S S E E E E E Q E +E E
|———————|——————–||
|———————|—2-3-2———–o||
|-4———4———|-4——–4-(4)-2—||
|———————|——————–||
|—2-2-2-2—2-2-2-2-|——————-o||
|———————|——————–||

Bridge
To Coda
W +W W +W
||———–|————|———-|———-||
||o———-|————|———-|———o||
||–4——–|-(4)——–|-4——–|-(4)——||
||–4——–|-(4)——–|-4——–|-(4)——||
||o-2——–|-(2)——–|-2——–|-(2)—–o||
||———–|————|———-|———-||

PM| ~ PM| ~ PM| PM| ~ PM| ~ PM| ~
Q E E Q E E Q E E E E E E Q E E Q E E Q E E E E Q
||—————-|—————-|—————|—————-||
||o—————|—————-|—————|—————o||
||–4——4——|—————-|-4——4——|—————-||
||–4————-|-4——5-4-2-4-|-4————-|-4——5-4-2—||
||o-2–2-2—-2-2-|—-2-2———|-2–2-2—-2-2-|—-2-2——–o||
||—————-|—————-|—————|—————-||

W +W W W
|———-|————|———-|——|
|———-|————|———-|——|
|-4——–|-(4)——–|———-|——|
|-4——–|-(4)——–|———-|——|
|-2——–|-(2)——–|———-|——|
|———-|————|———-|——|

W W W S S S S S S S S S S S S S S S S
|———-|———-|———-|———————————-|
|———-|———-|———-|———————————-|
|———-|———-|———-|———————————-|
|———-|———-|———-|———————————-|
|———-|———-|———-|———————————-|
|———-|———-|———-|-xSxSxSxSxSxSxSxSxSxSxSxSxSxSxSx-|

PM| ~ PM| ~ PM| PM| ~ PM| ~ PM| ~
Q E E Q E E Q E E E E E E Q E E Q E E Q E E E E Q
|—————|—————-|—————|—————-|
|—————|—————-|—————|—————-|
|-4——4——|—————-|-4——4——|—————-|
|-4————-|-4——5-4-2-4-|-4————-|-4——5-4-2—|
|-2–2-2—-2-2-|—-2-2———|-2–2-2—-2-2-|—-2-2———|
|—————|—————-|—————|—————-|

Gtr III
PM| ~ PM| ~ PM|
Q E E Q E E Q E E E E E E
|—————|—————-|
|—————|—————-|
|-4——4——|—————-|
|-4————-|-4——5-4-2-4-|
|-2–2-2—-2-2-|—-2-2———|
|—————|—————-|
|
| Gtr IV
| PM| ~ PM| ~ PM|
| Q E E Q E E Q E E E E E E
|—————|—————-|
|—————|—————-|
|-4——4——|—————-|
|-4————-|-4——5-4-2-4-|
|-2–2-2—-2-2-|—-2-2———|
|—————|—————-|

PM————————————–|
E E E E E E E E E E E E S S S S S S S S
|—————–|—————————||
|—————–|—————————||
|—————–|—————————||
|—————–|—————————||
|-2-2-2-2-2-2-2-2-|-2-2-2-2-5-4-2————-||
|-0-0-0-0-0-0-0-0-|-0-0-0-0——-5-3-2-3-5—||
|
| PM————————————–|
| E E E E E E E E E E E E S S S S S S S S
|—————–|—————————||
|—————–|—————————||
|—————–|—————————||
|—————–|———4-2-0————-||
|-2-2-2-2-2-2-2-2-|-2-2-2-2——-4-2-0-2-4—||
|-0-0-0-0-0-0-0-0-|-0-0-0-0——————-||

Verse
Gtrs III, IV
W W W H H
|———-|———-|———-|———–|
|———-|———-|———-|———–|
|———-|———-|———-|-7———|
|-9——–|-7——–|-5——–|-7—-7—-|
|-9——–|-7——–|-5——–|-5—-7—-|
|-7——–|-5——–|-3——–|——5—-|

PM————————| PM————————|
E S S S S S S S S S S S S S S E S S S S S S S S S S S S S S
|——————————-|——————————-|
|——————————-|——————————-|
|——————————-|——————————-|
|——————————-|——————————-|
|-9—————————–|-7—————————–|
|-7-7-7-7-7-7-7-7-7-7-7-7-7-7-7-|-5-5-5-5-5-5-5-5-5-5-5-5-5-5-5-|

D.S. al Coda
PM————————|
E S S S S S S S S S S S S S S H H
|——————————-|———–||
|——————————-|———–||
|——————————-|-7———||
|——————————-|-7—-7—-||
|-5—————————–|-5—-7—-||
|-3-3-3-3-3-3-3-3-3-3-3-3-3-3-3-|——5—-||

Solo – Anders Rain
&
Gtr IV
|——5——|
Q E +Q +E Q +Q +E S S S S S Q +E
|—————————-|—————————–10—(10)s|
|-15–14-(14)b15r(14)——|————————–12———–|
|———————–11—|-(11)–(11)————11————–|
|—————————-|——————12——————-|
|—————————-|————10h14———————-|
|—————————-|—————————————|
|
| Gtr III
| PM| ~ PM| ~~~~ PM-|
| Q E E Q E E Q E E E E E E
|—————————-|—————————————|
|—————————-|—————————————|
|–4————-4———–|—————————————|
|–4————————-|—4—————–5——–4-2—4–|
|–2—2—2————-2-2-|———2—2————————-|
|—————————-|—————————————|

~~ ~~
H +Q Q H +H
|-14——(14)–15—|-14——(14)b15r|
|——————–|————————|
|——————–|————————|
|——————–|————————|
|——————–|————————|
|——————–|————————|
|
| PM| ~~~~ PM| ~~ PM| ~
| Q E E Q E E Q E E E E Q
|——————–|————————|
|——————–|————————|
|–4——–4——–|————————|
|–4—————–|–4——–5—–4-2—-|
|–2–2-2——–2-2-|—–2-2—————-|
|——————–|————————|

|-12-15-14-15-12-15-10-15-|—-15-14-15-12-15-10-15-|
|————————-|-14———————-|
|————————-|————————-|
|————————-|————————-|
|————————-|————————-|
|————————-|————————-|
|
| PM| ~~ PM| ~~ PM|
| Q E E Q E E Q E E E E E E
|————————-|————————-|
|————————-|————————-|
|–4———–4———-|————————-|
|–4———————-|–4———–5–4–2–4-|
|–2—–2–2——–2–2-|——–2–2————-|
|————————-|————————-|

|–3–| |–3—| |–3—| |-3–|
|—-14-12-14-10-14—-14-|————————————–|
|-12—————-14—-|-14p12p10—————————–|
|————————-|———-12p11p9——————-|
|————————-|——————–12p11p9———|
|————————-|——————————12p10p9-|
|————————-|————————————–|
|
| PM| ~~ PM| ~~~ PM—| ~~~
| Q E E Q E E Q E E E E Q
|————————-|————————————–|
|————————-|————————————–|
|–4———–4———-|————————————–|
|–4———————-|–4——————5—-4—-2——|
|–2—–2–2——–2–2-|———–2—-2———————|
|————————-|————————————–|

~~
E H +E S S E
|—————————|
|—————————|
|—————————|
|————————12-|
|-12s14——-(14)-12s14—-|
|—————————|
|
| PM| ~ PM—|
| Q E E Q E E
|—————————|
|—————————|
|–4——–4—————|
|–4————————|
|–2—-2-2———2—–2-|
|—————————|

~~~ ~~~~~~~
|–3–|
S S S E. E. E. E. E S S +E +H.
|———————————-12-|-12s14-(14)-(14)———–|
|—————-12—-14—-15——-|—————————|
|————————————-|—————————|
|-11h12p11—————————-|—————————|
|———-14————————-|—————————|
|————————————-|—————————|
|
| ~~~ PM—-| PM-| ~ PM|
| Q E E E E E E Q E E Q E E
|————————————-|—————————|
|————————————-|—————————|
|————————————-|–4—————-4——-|
|–4——————–5–4—–2–4-|–4————————|
|————–2—–2—————-|–2———–2–2—-2-2–|
|————————————-|—————————|

T
|——5——|
+Q S S S S S S S S S S S S S
|-(14)—————-15h19-24p19p15————-|
|——————17—————-17———-|
|————-16————————16—-16-|
|———-17——————————19—-|
|——-19—————————————|
|————————————————|
|
| ~~~~ PM——| ~~
| Q E E E E Q
|————————————————|
|————————————————|
|————————————————|
|—4———————5—–4—–2———-|
|——–2——-2——————————-|
|————————————————|

~~
H +E E +E E H. +E +E
|—————————-|—————————|
|-17——(17)-19-(19)-19b20-|-19b20(19)r(19)-|
|—————————-|—————————|
|—————————-|—————————|
|—————————-|—————————|
|—————————-|—————————|
|
| PM| ~~~~ PM-| ~~~~~~ PM|
| Q E E Q E E Q E E E E E E
|—————————-|—————————|
|—————————-|—————————|
|–4——–4—————-|—————————|
|–4————————-|–4———-5-4—2—-4–|
|–2–2-2———–2—2—-|———2-2—————|
|—————————-|—————————|

|——5——| |——5——| |——5——| |——5——|
S S S S S S S S S S S S S S S S S S S S
|———————————————————————|
|———————————————————————|
|———————————————————————|
|————14-16-17-16-14——————–14-16-17-16-14—16-17-|
|-14-16-17——————–17-16-14-16-17————————–|
|———————————————————————|
|
| E E E E E E E E
|———————————————————————|
|———————————————————————|
|———————————————————————|
|———————————————————————|
|–2——-2——–2——-2——–2——-2——–2——-2——-|
|–0——-0——–0——-0——–0——-0——–0——-0——-|

|—–5—–| |—–5—–| |—–5—–| |—–5—–|
S S S S S S S S S S S S S S S S S S S S
|————————————————-15-17-19-17–|
|———-15-17-19-17-15—————-15-17-19————–|
|-14-16-18—————-18-16-14-16-18———————–|
|————————————————————–|
|————————————————————–|
|————————————————————–|
|
| W
|————————————————————–|
|————————————————————–|
|————————————————————–|
|–2———————————————————–|
|–2———————————————————–|
|–0———————————————————–|

Solo – Olaf Thorsen
~~~~~~~~~~~~~~~~~~~~~~~~~~~~~~~~~~~~~~~~~~~~~~~~~~~~~~~~~~~~~~~~~~~~~~~~~~~~~~~~~
W
|-19——————————————————————————-|
|———————————————————————————-|
|———————————————————————————-|
|———————————————————————————-|
|———————————————————————————-|
|———————————————————————————-|
|
| |——-5——-| |——–5——–| |——–5——–| |——-5——–|
| S S S S S S S S S S S S S S S S S S S S
|-14-12-10————–10—12—14—12-10—————-10-12-14—12—10—9-|
|————14p12h14———————-14p12h14————————–|
|———————————————————————————-|
|———————————————————————————-|
|———————————————————————————-|
|———————————————————————————-|
|
| Gtr V
| PM——————————————————————|
| E S S S S S S S S S S S S S S
|———————————————————————————-|
|———————————————————————————-|
|———————————————————————————-|
|———————————————————————————-|
|–9——————————————————————————-|
|–7——-7—-7—–7—-7—-7—-7—–7—-7—-7—-7—–7—-7—-7—-7—|

~~~~~~
+W
|-(19)—————————————————————————|
|——————————————————————————–|
|——————————————————————————–|
|——————————————————————————–|
|——————————————————————————–|
|——————————————————————————–|
|
| |——-5——-| |——-5——–| |——-5——–| |——-5——-|
| S S S S S S S S S S S S S S S S S S S S
|–12–10-9————–9—10—12—10-9—————-9-10-12—10—9—7–|
|————-12p10h12——————–12p10h12————————-|
|——————————————————————————–|
|——————————————————————————–|
|——————————————————————————–|
|——————————————————————————–|
|
| PM————————————————————–|
| E S S S S S S S S S S S S S S
|——————————————————————————–|
|——————————————————————————–|
|——————————————————————————–|
|——————————————————————————–|
|—7—————————————————————————-|
|—5——-5—-5—–5—5—-5—-5—-5—-5—-5—-5—-5—-5—-5—5—-|

|—–5——| |——5——-| |——-5——-| |——5——-|
S S S S S S S S S S S S S S S S S S S S
|-10-9-7————-7—9—10—9-7—————7-9-10—9—7—9-|
|———-10p8h10——————10p8h10———————-|
|———————————————————————-|
|———————————————————————-|
|———————————————————————-|
|———————————————————————-|
|
| PM——————————————————–|
| E S S S S S S S S S S S S S S
|———————————————————————-|
|———————————————————————-|
|———————————————————————-|
|———————————————————————-|
|–5——————————————————————-|
|–3—–3—-3—-3—3—3—-3—3—-3—3—-3—3—-3—3—3—|

~~~ ~~
Q. E H
|-10———-10S17————-|
|———————————|
|———————————|
|———————————|
|———————————|
|———————————|
|
| PM———| PM——–|
| E S S S S S S E S S S S S S
|———————————|
|———————————|
|———————————|
|–7——————————|
|–5–5-5-5-5–5-5–7————-|
|——————-5-5-5-5-5-5-5-|

Gtr III
T
|——-5——-| |——–5——–| |——–5——–| |——–5——–|
S S S S S S S S S S S S S S S S S S S S
|-14p10———————-10h14p10-19p14p10————————10h14-|
|——-12————–12—————————–12————–12———–|
|————11——11————————————-11—-11—————-|
|—————–12——————————————-12——————-|
|———————————————————————————–|
|———————————————————————————–|
|
| Gtr IV
| PM——————————————————————|
| E S S S S S S S S S S S S S S
|———————————————————————————–|
|———————————————————————————–|
|———————————————————————————–|
|———————————————————————————–|
|–9——————————————————————————–|
|–7——-7—-7—–7—-7—-7—-7—–7—-7—-7—-7—–7—-7—-7—-7—-|

T
|——5——| |——-5——-| |——-5——-| |——-5——-|
S S S S S S S S S S S S S S S S S S S S
|-12p9——————–9h12p9-17p12p9———————-9h12–|
|——10————10————————–10————10———–|
|———–9——9———————————-9—-9—————-|
|—————11————————————–11——————|
|—————————————————————————|
|—————————————————————————|
|
| PM———————————————————-|
| E S S S S S S S S S S S S S S
|—————————————————————————|
|—————————————————————————|
|—————————————————————————|
|—————————————————————————|
|–7————————————————————————|
|–5——5—5—-5—-5—5—-5—-5—-5—5—-5—-5—5—-5—5—–|

T
|—–5—–| |——5——-| |——5——-| |——5——-|
S S S S S S S S S S S S S S S S S S S S
|-10p7—————–7h10p7-15p10p7——————-7h10-|
|——8———–8————————–8———–8———-|
|———-7—–7——————————–7—7————–|
|————–9————————————9—————-|
|——————————————————————–|
|——————————————————————–|
|
| PM—————————————————–|
| E S S S S S S S S S S S S S S
|——————————————————————–|
|——————————————————————–|
|——————————————————————–|
|——————————————————————–|
|–5—————————————————————–|
|–3—–3—3—3—3—3—-3—-3—-3—3—3—3—3—3—3—-|

|——-5——-| |——–5——–| |——5——| |——-5——-|
S S S S S S S S S S S S S S S S S S S S
|-17p14———————-14h17p14-12p9——————–9h12p9—|
|——-15————–15———————10————10—————-|
|————14——14—————————–9——9——————-|
|—————–16————————————11———————|
|——————————————————————————|
|——————————————————————————|
|
| PM————————| PM———————|
| E S S S S S S E S S S S S S
|——————————————————————————|
|——————————————————————————|
|——————————————————————————|
|–7—————————————————————————|
|–5——-5—-5—–5—-5—-5—-5—–7———————————–|
|——————————————5——5—5—-5—-5—5—-5—–|

|—————9—————| |——-5——–| |——-5——–|
E E E E E E E E E S S S S S S S S S S
|————————————————————————–|
|————————————————————————–|
|————————————————————————–|
|———————————————–9—11-12-11—9———–|
|———-7—9—10—————9-10—12———————-12—10-|
|-7-9-10—————-9—10—12—————————————-|
|
| PM———————————————————–|
| E S S S S S S S S S S S S S S
|————————————————————————–|
|————————————————————————–|
|————————————————————————–|
|————————————————————————–|
|-9————————————————————————|
|-7——7—7—7—-7—7—-7—-7—-7—-7—7—–7—-7—7—-7—-|

|—————-9—————–| |——–5——–| |——–5——–|
E E E E E E E E E S S S S S S S S S S
|———————————————————————————|
|———————————————————————————|
|—————————————————11—12-14-12—11————|
|———–9—11—12—————-11-12—14————————14—12–|
|-9-10-12—————–10—12—14——————————————–|
|———————————————————————————|
|
| PM—————————————————————-|
| E S S S S S S S S S S S S S S
|———————————————————————————|
|———————————————————————————|
|———————————————————————————|
|———————————————————————————|
|-7——————————————————————————-|
|-5——-5—5—-5—-5—-5—-5—–5—-5—-5—-5—–5—-5—-5—-5—–|

|—————–9—————–| |——–5——–| |——–5——–|
E E E E E E E E E S S S S S S S S S S
|———————————————————————————-|
|———————————————————————————-|
|————11—12—14—————-12-14—16————–14—16—18—16-|
|-11-12-14——————12—14—16————–14—16-17——————-|
|———————————————————————————-|
|———————————————————————————-|
|
| PM—————————————————————–|
| E S S S S S S S S S S S S S S
|———————————————————————————-|
|———————————————————————————-|
|———————————————————————————-|
|———————————————————————————-|
|–5——————————————————————————-|
|–3——-3—-3—-3—-3—-3—-3—–3—-3—-3—-3—–3—-3—-3—-3—-|

|——-5——-| |——–5——–| |——-5——-| |——–5——–|
S S S S S S S S S S S S S S S S S S S S
|———————————————————15-17-15——————|
|—————————-15—17—19-17-15-17—19————–19—17—15—|
|-14-16-18—16—14-16-18———————————————————-|
|———————————————————————————–|
|———————————————————————————–|
|———————————————————————————–|
|
| PM————————| PM————————|
| E S S S S S S E S S S S S S
|———————————————————————————–|
|———————————————————————————–|
|———————————————————————————–|
|–7——————————————————————————–|
|–5——-5—-5—–5—-5—-5—-5—–7—————————————-|
|——————————————5——-5—-5—–5—-5—-5—-5——|

|–3–| |—3—| |—3—| |—3—| |——–5——–| |——–5——–|
S S S S S S S S S S S S S S S S S S S S S S
|-19p14———————————-14-15-17—15—14——————-14—15-|
|——-15————————–15————————17-14-15—17———–|
|———-16——————–16—————————————————|
|————-16————–16——————————————————|
|——————17p14h17———————————————————–|
|————————————————————————————-|
|
| PM——————————————————————-|
| E S S S S S S S S S S S S S S
|————————————————————————————-|
|————————————————————————————-|
|————————————————————————————-|
|————————————————————————————-|
|–9———————————————————————————-|
|–7——–7—-7—–7—-7—–7—-7—–7—-7—-7—-7—–7—-7—-7—-7—-|

|–3–| |—3—| |—3—| |—3—| |——–5——–| |——–5——–|
S S S S S S S S S S S S S S S S S S S S S S
|-17p12———————————-12-14-15—14—12——————-12—14–|
|——-14————————–14————————15-12-14—15————|
|———-14——————–14—————————————————-|
|————-14————–14——————————————————-|
|——————16p12h16————————————————————|
|————————————————————————————–|
|
| PM——————————————————————-|
| E S S S S S S S S S S S S S S
|————————————————————————————–|
|————————————————————————————–|
|————————————————————————————–|
|————————————————————————————–|
|–7———————————————————————————–|
|–5——–5—-5—–5—-5—–5—-5—–5—-5—-5—-5—–5—-5—-5—-5—–|

|–3–| |—3—| |—3—| |—3—| |——–5——–| |——–5——–|
S S S S S S S S S S S S S S S S S S S S S S
|-15p10———————————-10-12-14—12—10——————-10—12-|
|——-12————————–12————————14-10-12—14———–|
|———-12——————–12—————————————————|
|————-12————–12——————————————————|
|——————14p10h14———————————————————–|
|————————————————————————————-|
|
| PM——————————————————————-|
| E S S S S S S S S S S S S S S
|————————————————————————————-|
|————————————————————————————-|
|————————————————————————————-|
|————————————————————————————-|
|–5———————————————————————————-|
|–3——–3—-3—–3—-3—–3—-3—–3—-3—-3—-3—–3—-3—-3—-3—-|

|-3–| |—3—| |—3—| |–3—| |——5——-| |——5——-|
S S S S S S S S S S S S S S S S S S S S S S
|-14p9———————————9-10-12-10—9————————–|
|——10————————-10——————–12p10p8—————-|
|———11——————-11———————————11p9p8—|
|————11————-11————————————————-|
|—————–12p9h12——————————————————|
|——————————————————————————|
|
| PM————————| PM———————|
| E S S S S S S E S S S S S S
|——————————————————————————|
|——————————————————————————|
|——————————————————————————|
|–7—————————————————————————|
|–5——-5—-5—-5—-5—–5—-5—-7————————————|
|—————————————–5——-5—5—–5—5—-5—5—–|

Pre-Chorus
N.C.(F5)
~~~~~~~~~~~~~~~~~~~~~~~~~~~~~~~~~~~~~~~~~~
W +W
||———————|———————-|
||o——————–|———————-|
||–11—————–|-(11)—————–|
||———————|———————-|
||o——————–|———————-|
||———————|———————-|
|
| PM–| PM| PM–| PM|
| E S S E E E E E E E S S E E E E E E
||———————|———————-|
||o——————–|———————-|
||———————|———————-|
||—4——-4—–4s5-|—4——–4—–4s5-|
||o——————–|———————-|
||—–2-2-2—2-2—–|——2-2-2—2-2—–|

~~~~~~

Jika kamu pingin belajar mainin lagunya Dear and the Headlights, termasuk chord gitar Moonlight.
Kamu bisa belajar dengan mengikuti kursus, masuk sekolah musik, datengin guru untuk les privat bahkan bisa juga dengan cara otodidak.
Untuk dasarnya kamu bisa belajar C major, A major, G major, E major, and D major. Selain kunci tadi, nanti bisa dimodif dikit.

Jangan lupa selalu latihan untuk mainin gitar lagu Moonlight. Awal-awal mungkin susah, semoga setelah terbiasa, nanti kamu bisa menguasai semua lagu Dear and the Headlights

Leave a Reply

Your email address will not be published.