Chord Gitar Puede ser – El Canto del Loco

Posted on

Jika kamu nyariin kunci chord gitar untuk lagu Puede ser, kamu berada di halaman yang tepat.
Kamu bisa mainin Puede ser yang dinyanyiin oleh El Canto del Loco pake gitar yang kamu suka.

Chord lagu Puede ser punya ritme dan masuk dalam album Radio La Colifata presenta: El Canto del Loco (2009).
Di website ini, kamu juga bisa dapetin chord lain, seperti chord lagu jazz, chord lagu country, pop, rock, dll.

Kunci Gitar Puede ser oleh El Canto del Loco


cejilla 4

intro acustica:


e|-----------------|-----------------|-----------------|-----------------|
B|-----------------|-----------------|-----------------|-----------------|
G|-----------------|--------0--------|--------0--------|--------2--------|
D|--------0------0-|-----------------|-----2-----------|-----4-------0---|
A|-----2-------2---|-----2-------2---|-------------3---|-0---------0-----|
E|-3---------2-----|-0---------0---0-|-3---------3-----|-----------------|


e|-----------------|-----------------|-----------------|-----------------|
B|-----------------|-----------------|-----------------|-----------------|
G|--------0------0-|--------0------0-|--------0--------|--------2------2-|
D|--------------0--|-----2--------2--|-----2-------2---|--------------4--|
A|-----2-------2---|-------------2---|-----------------|-----5-------5---|
E|-3---------3-----|-0---------0-----|-3---------3-----|-5---------5-----|

No sé si quedan amigos ni si existe el amor,
si puedo contar contigo para hablar de dolor.


e|-----------------|-----------------|-----------------|-----------------|
B|-----------------|-----------------|-----------------|-----------------|
G|--------0------0-|--------0------0-|--------0--------|--------2------2-|
D|--------------0--|-----2--------2--|-----2-------2---|--------------4--|
A|-----2-------2---|-------------2---|-----------------|-----5-------5---|
E|-3---------3-----|-0---------0-----|-3---------3-----|-5---------5-----|

Si existe alguien que escuche cuando alzo la voz,y no sentirme sola.

2da guitarra(electrica) rasguea los acordes, la primera sigue con el riff:

Puede ser que la vida me guíe hasta el sol,
puede ser que el mal domine tus horas,
o que toda tu risa le gane ese pulso al dolor,
puede ser que lo malo sea hoy.

ahora la 2da hace este riff en toda la estrofa:


e|-----------------|-----------------|-----------------|-----------------|
B|-----------------|-----------------|-----------------|-----------------|
G|--------0------0-|--------0------0-|--------0------0-|--------2------2-|
D|-----0-------0---|-----2-------2---|-----2-------2---|-----0-------0---|
A|-----------------|-----------------|-----------------|-0---------0-----|
E|-3---------3-----|-0---------0-----|-3---------3-----|-----------------|

Naces y vives solo, naces y vives solo, naces y vives solo hoy.

Voy haciendo mis planes, voy sabiendo quien soy.
Voy buscando mi parte, voy logrando el control.
Van jugando contigo, van rompiendo tu amor, van dejándote solo…

Naces y vives solo, naces y vives solo, naces y vives solo hoy…

el punteo en la electrica:


e|-----------------|-----------------|-----------------|-----------------|
B|-----------------|---0-------------|---0--0----------|-------0---------|
G|------4----------|-----0-----------|-----0-----------|-----0-----------|
D|-----5-5---------|------2----------|-------0---------|---2-------------|
A|---5-------------|-------2---------|-----------------|-----------------|
E|-3---------------|-0---------------|-3---------------|-0---------------|

Algo puede mejorar, algo que pueda encontrar,
algo que me dé ese aliento, que me ayude a imaginar,


e|-----------------|-------0---------|-----------------|-------0---------|
B|-----------------|-----1-----------|-------0---------|-----1-----------|
G|-------2---------|-----------------|-----0-----------|-----------------|
D|-----4-----------|---2-------------|---2-------------|---2-------------|
A|---5-------------|-3---------------|-----------------|-3---------------|
E|-5---------------|-----------------|-0---------------|-----------------|

y yo lo quiero lograr, ya no quiero recordar,
y darle tiempo a este momento, que me ayude a superar,


e|-----------------|
B|-----------------|
G|-----0-----------|
D|---4---4---------|
A|-5---------------|
E|-----------------|

que me dé tu sentimiento.

estribillo 2 veces(las 2 guitarras rasguean):

Puede ser que la vida me guíe hasta el sol,
puede ser que el mal domine tus horas,
o que toda tu risa le gane ese pulso al dolor,
puede ser que lo malo sea hoy.

Puede ser que la vida me guíe hasta el sol,
puede ser que el mal domine tus horas,
o que toda tu risa le gane ese pulso al dolor,
al dolor, al dolor.

eléctrica:


e|-----------------|-----------------|-----------------|-----------------|
B|-------3---------|-------0---------|--------3--------|-------0---------|
G|-----4-----------|-----0-----------|------4----------|-----0-----------|
D|-----------------|---2-------------|-----------------|---2-------------|
A|---5-------------|-----------------|----5------------|-----------------|
E|-3---------------|-0---------------|--3--------------|-0---------------|

Algo puede mejorar, algo que pueda encontrar,
G(un solo rasgueo)
Que me ayude a imaginar y yo lo quiero lograr

Jika kamu pingin belajar mainin lagunya El Canto del Loco, termasuk chord gitar Puede ser.
Kamu bisa belajar dengan mengikuti kursus, masuk sekolah musik, datengin guru untuk les privat bahkan bisa juga dengan cara otodidak.
Untuk dasarnya kamu bisa belajar C major, A major, G major, E major, and D major. Selain kunci tadi, nanti bisa dimodif dikit.

Jangan lupa selalu latihan untuk mainin gitar lagu Puede ser. Awal-awal mungkin susah, semoga setelah terbiasa, nanti kamu bisa menguasai semua lagu El Canto del Loco

Leave a Reply

Your email address will not be published.