Chord Gitar Say Goodbye – Cheap Trick

Posted on

Jika kamu nyariin kunci chord gitar untuk lagu Say Goodbye, kamu berada di halaman yang tepat.
Kamu bisa mainin Say Goodbye yang dinyanyiin oleh Cheap Trick pake gitar yang kamu suka.

Chord lagu Say Goodbye punya ritme dan masuk dalam album Cheap Trick (1997).
Di website ini, kamu juga bisa dapetin chord lain, seperti chord lagu jazz, chord lagu country, pop, rock, dll.

Kunci Gitar Say Goodbye oleh Cheap Trick


A pm A/F pm A/F# pm A/F pm A


e|---------------------------------------------------------------------------|
B|---------------------------------------------------------------------------|
G|---------------------------------------------------------------------------|
D|-2--2-2-2-2-2---3--3-3-3-3-3---4--4-4-4-4-4---3--3-3-3-3-3----2------------|
A|-0--0-0-0-0-0---0--0-0-0-0-0---0--0-0-0-0-0---0--0-0-0-0-0----0------------|
E|---------------------------------------------------------------------------|

…to be better


e|-----------------------------------------------------------------------|
B|---------------------------------------------------------------------------|
G|---------------------------------------------------------------------------|
D|---------------------------------------------------------------------------|
A|---------------------------------------------------------------------------|
E|---------------------------------------------------------------------------|

How does it f[A/F]eel to be bet[A/F#]ter[A/F]
How does it f[A/F]eel to be on [A/F#]your o[A/F]wn
Oh tell me why did you take the time
To tell me that you came to say goodbye

Everybody wants to laugh when you feel bad
Seems like the only way when the nights won’t pass
When you’re so sad, if you can’t go back
And you can’t look down

How does it f[A/F]eel to be bet[A/F#]ter[A/F]
How does it f[A/F]eel to be on [A/F#]your o[A/F]wn
Oh tell me why did you take the time
To tell me that you came to say goodbye
Goodbye

Everything comes to mind, it’s a breakdown
The way things seem to slide, it’s a free fall
When you’re so sad, if you can’t go back
And you can’t look down



Solo


e|-----7/5----7/5-------------------5/7--7/8/7-----------------------------|
B|-2/5-----8------7---5/7/5----2/5--------------7/8/7----5/7/8/7-----------|
G|-------------------------------------------------------------------------|
D|-------------------------------------------------------------------------|
A|-------------------------------------------------------------------------|
E|-------------------------------------------------------------------------|

How does it f[A/F]eel to be bet[A/F#]ter[A/F]
How does it f[A/F]eel to be on [A/F#]your o[A/F]wn
Oh tell me why did you take the time
Walk away, tell those lies
Why did you waste your time
To tell me that you came to say goodbye

A E D E (x4)
Goodbye

Jika kamu pingin belajar mainin lagunya Cheap Trick, termasuk chord gitar Say Goodbye.
Kamu bisa belajar dengan mengikuti kursus, masuk sekolah musik, datengin guru untuk les privat bahkan bisa juga dengan cara otodidak.
Untuk dasarnya kamu bisa belajar C major, A major, G major, E major, and D major. Selain kunci tadi, nanti bisa dimodif dikit.

Jangan lupa selalu latihan untuk mainin gitar lagu Say Goodbye. Awal-awal mungkin susah, semoga setelah terbiasa, nanti kamu bisa menguasai semua lagu Cheap Trick

Leave a Reply

Your email address will not be published.