Chord Gitar Serenity – Godsmack

Posted on

Jika kamu nyariin kunci chord gitar untuk lagu Serenity, kamu berada di halaman yang tepat.
Kamu bisa mainin Serenity yang dinyanyiin oleh Godsmack pake gitar yang kamu suka.

Chord lagu Serenity punya ritme dan masuk dalam album Faceless (2003).
Di website ini, kamu juga bisa dapetin chord lain, seperti chord lagu jazz, chord lagu country, pop, rock, dll.

Kunci Gitar Serenity oleh Godsmack



e|--x----x----x---x---x-------------|
B|--x----x----x---x---x-------------|
G|--x----x----x---x---x-------------|
D|--5----6----4---0---3-------------|
A|--5----6----4---0---3-------------|
E|--5----6----4---0---3-------------|

(intro/riff 1)


e|----------------------------------|
B|----------------------------------|
G|----------------------------------|
D|----0----0-0-----0------0------0--|
A|----------------------------------|
E|--0---0--------3---3--6---6--3----|

As I sit here and slowly close my eyes

I take another deep breath

And feel the wind pass through my body

I’m the one in your soul

Reflecting the light

Protect the ones who hold you
Cradling your inner child

I need serenity
In a place where I can hide
I need serenity
Nothing changes, days go by

Where do we go when we just don’t know
And how do we relight the flame when it’s cold
Why do we dream when our thoughts mean nothing
D5 F5 (hold)
And when will we learn to control

(riff 1)


e|----------------------------------|
B|----------------------------------|
G|----------------------------------|
D|----0----0-0-----0------0------0--|
A|----------------------------------|
E|--0---0--------3---3--6---6--3----|

Tragic visions slowly stole my life

Tore away everything

Cheating me out of my time

I’m the one who loves you

No matter wrong or right

And every day I hold you

I hold you with my inner child

I need serenity
In a place where I can hide
I need serenity
Nothing changes, days go by

Where do we go when we just don’t know
And how do we relight the flame when it’s cold
Why do we dream when our thoughts mean nothing
And when will we learn to control

(break)


E|--0----0-------------0----------------------------------|
B|--3--3---3-------3-----3--------------------------------|
G|--2--------2-------2-----2---------7---------7----------|
D|--0------------0--------------6-----6---6--6---6--------|
A|--0---------------------------6-------6---6------6------|
D|--0---------------------------6--------6----------------|

repeat

Where do we go when we just don’t know
And how do we relight the flame when it’s cold
Why do we dream when our thoughts mean nothing
And when will we learn to control

I need serenity
I need serenity
I need serenity
I need serenity

Jika kamu pingin belajar mainin lagunya Godsmack, termasuk chord gitar Serenity.
Kamu bisa belajar dengan mengikuti kursus, masuk sekolah musik, datengin guru untuk les privat bahkan bisa juga dengan cara otodidak.
Untuk dasarnya kamu bisa belajar C major, A major, G major, E major, and D major. Selain kunci tadi, nanti bisa dimodif dikit.

Jangan lupa selalu latihan untuk mainin gitar lagu Serenity. Awal-awal mungkin susah, semoga setelah terbiasa, nanti kamu bisa menguasai semua lagu Godsmack

Leave a Reply

Your email address will not be published.