Chord Gitar Svijet za nas – Laufer

Posted on

Jika kamu nyariin kunci chord gitar untuk lagu Svijet za nas, kamu berada di halaman yang tepat.
Kamu bisa mainin Svijet za nas yang dinyanyiin oleh Laufer pake gitar yang kamu suka.

Chord lagu Svijet za nas punya ritme dan masuk dalam album The best off (1994).
Di website ini, kamu juga bisa dapetin chord lain, seperti chord lagu jazz, chord lagu country, pop, rock, dll.

Kunci Gitar Svijet za nas oleh Laufer


-------------------------------------------------------------------------------

Svijet za nas – Laufer


-------------------------------------------------------------------------------

Tabbed by: brian_s
Email: [email protected]

Acoustic intro:


e---------------------------------------------------------------------|
B---------------------------------------------------------------------|
G?--2/4---4/7/4/7----7-/9-/7--/4---/1---------------------------------|
D------------------------------------------4--------------------------|
A---------------------------------------------------------------------|
E---------------------------------------------------------------------|

Distorted intro (part 1): Distorted intro (part 2):


e---------------------------------I-----------------------------|
B---------------------------------I-----------------------------|
G---9--9-9--7--7-7-7----play 7x---I-------------7---------------|
D---9--9-9--7--7-7-7--------------I---9--7----------9---7---9---|
A---7--7-7--5--5-5-5--------------I---------9-------------------|
E---------------------------------I-----------------------------|

Verse chords:
E5: x79900
D: x57700
A7: 577000
G6: 355000

VERSE 1:
U tvom sam gradu u ljetnu noc
A zelim tu i ostati
Kazes, naci cemo lijek
Dopusti da ti pomognem.

VERSE 2:
Mogu li prespavati
Uz tebe sve te godine
Prve suze s lica tvog
Ne zelim da me probude.

CHORUS:
Ne daj mi da vidim
Ovo nije svijet za nas
Ne daj mi da znam
G5 PLAY DISTORTED INTRO PART 2
Ovo nije svijet za nas.

VERSE 3:
Na tvojim toplim usnama
Zelim da se izgubim
Sa licem svojim pokrij me
I ne daj da me pokvare.

PLAY VERSE 2:

CHORUS 2X:

SOLO:


e---------------------------------------------------------------------|
B---------------------------------------------------------------------|
G-------------7--------------------7-----7-9b?----9br-7---------------|
D---9--7----------9---7---9-----------9-------------------------------|
A---------9-----------------------------------------------------------|
E---------------------------------------------------------------------|
e-------------------------------I-------------------------------------|
B-------------------------------I-------------------------------------|
G---9/7?--7/6---6-6---- play 2x I---11/9?---9/7----7-7-----7--6--4----|
D-------------------------------I-------------------------------------|
A-------------------------------I-------------------------------------|
E-------------------------------I-------------------------------------|
e-------------------------------I-------------------------------------|
B-------------------------------I-------------------------------------|
G---9/7?--7/6---6-6---- play 2x I---11/7---11/7---11/7-------11-------|
D-------------------------------I-------------------------------------|
A-------------------------------I-------------------------------------|
E-------------------------------I-------------------------------------|
e-----------------------------------------I-------------------------|
B-----------12-12-----10------------------I-------------------------|
G---11-11----------------11-9---- play 3x I----11--9----------------|
D-----------------------------------------I-----------12--9---------|
A-----------------------------------------I-------------------------|
E-----------------------------------------I-------------------------|
e-----------------------------------------I-----------------------------|
B-----------12-12-----10------------------I-----------------------------|
G---11-11----------------11-9---- play 3x I-------------7---------------|
D-----------------------------------------I---9--7----------9---7---9---|
A-----------------------------------------I---------9-------------------|
E-----------------------------------------I-----------------------------|
e---------------------------------------------------------------------|
B---------------------------------------------------------------------|
G---7-----7-9b?--9br-7-------------------7?---9b----------------------|
D------9---------------------9-9p7---7h9------------------------------|
A----------------------------------9----------------------------------|
E---------------------------------------------------------------------|

PLAY VERSE 2:

CHORUS 2x

Svijet…. Svijet…. Za naaaas….

Jika kamu pingin belajar mainin lagunya Laufer, termasuk chord gitar Svijet za nas.
Kamu bisa belajar dengan mengikuti kursus, masuk sekolah musik, datengin guru untuk les privat bahkan bisa juga dengan cara otodidak.
Untuk dasarnya kamu bisa belajar C major, A major, G major, E major, and D major. Selain kunci tadi, nanti bisa dimodif dikit.

Jangan lupa selalu latihan untuk mainin gitar lagu Svijet za nas. Awal-awal mungkin susah, semoga setelah terbiasa, nanti kamu bisa menguasai semua lagu Laufer

Leave a Reply

Your email address will not be published.