Chord Gitar The Long Way Around – Jackson Browne

Posted on

Jika kamu nyariin kunci chord gitar untuk lagu The Long Way Around, kamu berada di halaman yang tepat.
Kamu bisa mainin The Long Way Around yang dinyanyiin oleh Jackson Browne pake gitar yang kamu suka.

Chord lagu The Long Way Around punya ritme dan masuk dalam album Standing in the Breach (2014).
Di website ini, kamu juga bisa dapetin chord lain, seperti chord lagu jazz, chord lagu country, pop, rock, dll.

Kunci Gitar The Long Way Around oleh Jackson Browne


[Intro Tab]


e|-0---------------|-0----------------|----------------|-0-------------|
B|------------1----|-------------1----|-1---------1----|---------------|
G|-----0-----------|------0--------0--|-----2----------|----2----------|
D|--------------0--|------------------|-------------3--|-------3-------|
A|-3-------2-------|-0----------------|--------3-------|-----------0h2-|
E|-----------------|----------3-------|-1--------------|-1-------------|

[Verse Tab]


e|-0---------------|-0----------------|-----------------|-0---------------|
B|------------1----|-------------1----|------------1----|------------1----|
G|-----0-----------|------0--------0--|-1---------------|------2----------|
D|--------------0--|------------------|------3-------3--|----3---------3--|
A|-3-------2-------|-0----------------|----3------------|----------3------|
E|-----------------|----------3-------|-1-------1-------|-1---------------|

[Verse 1]
I don’t know what to say about these days
I’m seeing people changing in the strangest ways
Even in the richer neighborhoods
People don’t know when they’ve got it good
They’ve got the envy, and they’ve got it bad

[Instrumental Fill]

Here’s one way to play that little fill that comes after some verses:


e|------0----------|-0-------3-------|-----0---------|---------------|
B|------------3----|-----------------|-----1---------|---------------|
G|-----------------|-----------------|-----2---------|---------------|
D|----------------|------------------|---------------|---------------|
A|-3----3-----2----|-0---------------|---------------|-----------0h2-|
E|-----------------|---------3-------|-1-------------|---------------|

And another way:


e|-------------------|-----------------|---------------|--------------|
B|--------5-----3----|-5-------8-------|-----1---------|--------------|
G|-------------------|-----------------|-----0---------|--------------|
D|--------7-----5----|-7-------10------|--3------------|--------------|
A|-(3)----7-----5----|-7-------10------|-(3)-----------|--------------|
E|-------------------|-----------------|---------------|--------------|

The normal verse chords continue underneath, so you can also just continue to play those instead.


e|-0---------------|-0----------------|-----------------|-0---------------|
B|------------1----|-------------1----|------------1----|------------1----|
G|-----0-----------|------0--------0--|-1---------------|------2----------|
D|--------------0--|------------------|------3-------3--|----3---------3--|
A|-3-------2-------|-0----------------|----3------------|----------3------|
E|-----------------|----------3-------|-1-------1-------|-1---------------|

[Verse 2]
When I was a kid everything I did was trying to be free
Running up and down Tinsel Town with the fire inside of me
My planet’s all in retrograde, the best of all my plans got laid
I made my breaks, and some mistakes
Just not the ones people think I made

[Chorus Tab]


e|-0---------------|-0----------------|-----------------|-0---------------|
B|------------1----|-------------1----|------------1----|------------1----|
G|-----0-----------|------0--------0--|-1---------------|------2----------|
D|--------------0--|------------------|------3-------3--|----3---------3--|
A|-3-------2-------|-0----------------|----3------------|----------3------|
E|-----------------|----------3-------|-1-------1-------|-1---------------|


Now I’m a long way gone
Down this wild road I’m on
It’s going to take me where I'm bound
But it’s the long way a- round

[Instrumental Fill] x2

[Verse 3]
It’s so hard keeping track of what’s gone wrong
The covenant unravels, and the news just rolls along
I could feel my memory letting go some two or three disasters ago
It’s hard to say which did more ill
Citizens United or the Gulf oil spill

And I’m a long way gone
Down this wild road I’m on
It’s going to take me where I'm bound
But it’s the long way a- round

[Instrumental Fill] x2

[Verse 4]
It’s never been that hard to buy a gun
Now they’ll sell a Glock 19 to just about anyone
The seeds of trage- dy are there
In what we feel we have the right to bear
To watch our children come to harm
There in the safety of our arms
With all we disagree about
The passions burn, the heart goes out


And we’re a long way gone
Down this wild road we’re on
It’s going to take us where we’re bound
But it’s the long way a- round

[Instrumental Fill] x4

[~Outro~] x 8+


e|-0---------------|-----------------|--------------|--------------|
B|-----------------|-1---------------|-----------1--|--------------|
G|--------------0--|--------------0--|-2------------|--------------|
D|-----------------|-----------------|--------3-----|--0-----------|
A|-3-------2-------|-0---------------|--------------|--------------|
E|-----------------|---------3-------|-1------------|--------------|

F Cadd11 Dm7 Csus4 Bbmaj7 x8

Jika kamu pingin belajar mainin lagunya Jackson Browne, termasuk chord gitar The Long Way Around.
Kamu bisa belajar dengan mengikuti kursus, masuk sekolah musik, datengin guru untuk les privat bahkan bisa juga dengan cara otodidak.
Untuk dasarnya kamu bisa belajar C major, A major, G major, E major, and D major. Selain kunci tadi, nanti bisa dimodif dikit.

Jangan lupa selalu latihan untuk mainin gitar lagu The Long Way Around. Awal-awal mungkin susah, semoga setelah terbiasa, nanti kamu bisa menguasai semua lagu Jackson Browne

Leave a Reply

Your email address will not be published.