Chord Gitar This Head I Hold – Electric Guest

Posted on

Jika kamu nyariin kunci chord gitar untuk lagu This Head I Hold, kamu berada di halaman yang tepat.
Kamu bisa mainin This Head I Hold yang dinyanyiin oleh Electric Guest pake gitar yang kamu suka.

Chord lagu This Head I Hold punya ritme dan masuk dalam album Mondo (2012).
Di website ini, kamu juga bisa dapetin chord lain, seperti chord lagu jazz, chord lagu country, pop, rock, dll.

Kunci Gitar This Head I Hold oleh Electric Guest


Tuning: Standard

Notes: Some parts are single strums, some aren’t. Hah it’s a good song, just
play along if you need to get a feel for it! This isn’t all tabs/chords, it’s
how I play it.

Piano Intro: (Roughly)


e|---5--5----7--7-----8----8------7--7---------------------------------------|
B|---6--6----8--8-----10---10-----8--8---------------------------------------|
G|-7--7--7-9--9--9-10---10---10-9--9--9--------------------------------------|
D|---------------------------------------------------------------------------|
A|---------------------------------------------------------------------------|
E|---------------------------------------------------------------------------|

Suggested Chords: (How I play it)
Dm Em F Am Em G C Dm (These are just the transitions)


e|-5---7---8---12--7--10-----5-----------------------------------------------|
B|-6---8---10--13--8--12-----6-----------------------------------------------|
G|-7---9---10--14--9--12-----7-----------------------------------------------|
D|-7---9---10--14--9--12-----7-----------------------------------------------|
A|-5---7---8---12--7//10--3//5-----------------------------------------------|
E|---------------------------------------------------------------------------|

Verse 1:
They call me, a little grown up
See, I’m upset because I’ve always been stuck
But I don’t know what it is I’m without
Guess I’m in love with always feeling down
See the problem was I
Was fully consumed
With all of the petty things that I couldn't do
All of the plastic products, shows and woes
I didn’t ever show, I let it go

Pre-Chorus 1:
So I listen while I'm told
Sit back, don't think, get high
Take drink, sit back, don't think
The more I listen the deeper I sink

Chorus 1:
Oooo
I go higher and I say ooo
Oh ooo I go higher
This head that I hold is so tired
And I say oohh no I go higher
And I said Oohh what’s it gon, what’s it gonna be,
Make me say oohh, what’s it gon, what’s it gonna be
I’m feelin' so cold, but they won’t, but they won’t believe
Make me say oh, oh , oh , oh , ohh

Fill 1: (In spirit)


e|-------------------13------------------------------------------------------|
B|---------------------10----------------------------------------------------|
G|-----------------------10--------------------------------------------------|
D|-------------------------12------------------------------------------------|
A|---------------------------------------------------------------------------|
E|-10-12----12-13------------------------------------------------------------|

Verse 2:
So find me stuck in some scene
I wanna get out but there’s no in between
So I sit back as I watch the crowd go
Never assuming that it’s something so low
See the answer is this
If I wanna be free
I gotta stop playin’ round and runnin’ from me
Cuz all of the plastic products, shows and woes
Got my head feelin’ low, no room to grow

Pre-Chorus 2:
So I listen while I'm told
Sit back don't think get high
Take drink don't feel just go
If you listen carefully then you won’t feel so low
Sit back don't think the more I listen the deeper I sink

Chorus 2:
Ooooo I got higher and I say oh oo I go higher
This head that I hold is so tired
And I say oh, no, I go higher,
And I say oh, what’s it gon, what’s it gonna be
Make me so oh what’s it gon what’s it gonna be
I’m feeling so cold but they won’t, but they won’t believe
Make me say oh, oh , oh , oh , ohh

Fill 1: (In spirit)


e|-------------------13------------------------------------------------------|
B|---------------------10----------------------------------------------------|
G|-----------------------10--------------------------------------------------|
D|-------------------------12------------------------------------------------|
A|---------------------------------------------------------------------------|
E|-10-12----12-13------------------------------------------------------------|

Outro Piano:


e|---5--5----3--3------------------------------------------------------------| x8
B|--6--6--6-5--5--5----------------------------------------------------------|
G|-7--7--7-5--5--5-----------------------------------------------------------|
D|---------------------------------------------------------------------------|
A|---------------------------------------------------------------------------|
E|---------------------------------------------------------------------------|

Chorus 3:
I say oh I go higher!
And I say oh,oohh oh I go higher
Get no sleep feed the empire
And I say oh, no I go higher
And I say oh I go higher
And I say oh, oh oh I go higher
This head that I hold is so tired,
And I say no go higher


Jika kamu pingin belajar mainin lagunya Electric Guest, termasuk chord gitar This Head I Hold.
Kamu bisa belajar dengan mengikuti kursus, masuk sekolah musik, datengin guru untuk les privat bahkan bisa juga dengan cara otodidak.
Untuk dasarnya kamu bisa belajar C major, A major, G major, E major, and D major. Selain kunci tadi, nanti bisa dimodif dikit.

Jangan lupa selalu latihan untuk mainin gitar lagu This Head I Hold. Awal-awal mungkin susah, semoga setelah terbiasa, nanti kamu bisa menguasai semua lagu Electric Guest

Leave a Reply

Your email address will not be published.