Chord Gitar Tonight in Flames – Cradle of Filth

Posted on

Jika kamu nyariin kunci chord gitar untuk lagu Tonight in Flames, kamu berada di halaman yang tepat.
Kamu bisa mainin Tonight in Flames yang dinyanyiin oleh Cradle of Filth pake gitar yang kamu suka.

Chord lagu Tonight in Flames punya ritme dan masuk dalam album Thornography (2006).
Di website ini, kamu juga bisa dapetin chord lain, seperti chord lagu jazz, chord lagu country, pop, rock, dll.

Kunci Gitar Tonight in Flames oleh Cradle of Filth


C R A D L E O F F I L T H

[-]
T O N I G H T I N F L A M E S

THORNOGRAPHY
(c) Roadrunner Records – 2006

Tune down one full step

Tempo 166 BPM
Time Signature 4/4


-----------------------------

PADDY MCMULLAN

Version 1.1
(Corrections Outlined at Bottom of Tab)
19th November 2008


-----------------------

Tablature Symbols Used:

P.M… – Palm Mute
p – Pull-Off
h – Hammer-On
(/) – Legato Slide (Blank space indicates length of slide)
– Slide Down to/Down From (Blank space indicates length of slide)
/ – Slide Up To/Up From (Blank space indicates length of slide)
( ) – Ghost Note/Tied Note/Implied Note
T – Tapped Note
– Pinch Harmonic/Artificial Harmonic
% – Whammy Bar (Articulation indicated above tab)
REST – Rest and sustain rest for duration of blank space
4t5 – Trill
2b3 – Bend
2b3r2 – Bend, then release
x – Muted Note/Dead Note

Intro: Guitars 1 & 2 with Heavy Distortion (Play 4 times)

3/4 bend up, then release


||----------------------|------------------------|----------------------|
||----------------------|------------------------|----------------------|
||----------------------|------------------------|----------------------|
||--2-------------------|--3---------------------|--2-------------------|
||--2----2--2-----------|--3--------------------|--2----2--2-----------|
||--0----0--0-----------|--1--------1--3 b r--1--|--0----0--0-----------|

P.M. ….


|------------------------| |
|------------------------| |
|------------------------||
|--3---------------------||
|--3--------3------------| |
|--1-----------4--1 h 3--| |

Riff 1a: Guitars 1 & 2 (Play 4 times)


||------------------------|--------------------------| |
||------------------------|--------------------------| |
||------------------------|--------------------------||
||------------------------|--------------------------||
||--4----4--4----4--4--4--|--3----3--3--3--(3)-3--5--| |
||--2----2--2----2--2--2--|--1----1--1--0 h 1--1--3--| |

Riff 1b: Guitar 3 with Heavy Distortion (Play once)


||------------------------|----------------------------|
||------------------------|----------------------------|
||-------6-----6~~-----6--|-----7--6 h 7-----7--6 h 7--|
||----------9-------------|---------------6------------|
||--9---------------------|--8-------------------------|
||------------------------|----------------------------|
|------------------------|--------------------------|
|------------------------|--------------------------|
|-------6-----6~~-----6--|-----7--6--7~~---6--------|
|----------9-------------|--------------------9~~---|
|--9---------------------|--8-----------------------|
|------------------------|--------------------------|
|------------------------|----------------------------|
|------------------------|----------------------------|
|-------6-----6~~-----6--|-----7--6 h 7-----7--6 h 7--|
|----------9-------------|---------------6------------|
|--9---------------------|--8-------------------------|
|------------------------|----------------------------|
|------------------------|---------------------------||
|------------------------|------------------6--5--6--||
|-------6-----6~~-----6--|-----7--6--7~--5-----------||
|----------9-------------|---------------------------||
|--9---------------------|--8------------------------||
|------------------------|---------------------------||
|-----------------------||
|--5~~---- -----------||
|-----------------------||
|-----------------------||
|-----------------------||
|-----------------------||

Verse: Guitars 1 & 2 (Play twice) ( Tempo 170 BPM )


||---------------------------|-------------------------------|
||---------------------------|--------------------R----------|
||---------------------------|--------------------E----------|
||--(97)--------------------|--(97)-----(9/10)--S--(109)--|
||--(75)--2--2--2--2--2--2--|--(75)-----(7/8 )--T--(8 7)--|
||---------0--0--0--0--0--0--|---------0---------------------|

……………. …


|---------------------------|---------------------------------|
|---------------------------|----------------------R----------|
|---------------------------|----------------------E----------|
|--(97)--------------------|--(109)-----(10/12)--S--(109)--|
|--(75)--2--2--2--2--2--2--|--(8 7)-----(8 /10)--T--(8 7)--|
|---------0--0--0--0--0--0--|----------0----------------------|

……………. …


|---------------------------|-------------------------------|
|---------------------------|--------------------R----------|
|---------------------------|--------------------E----------|
|--(97)--------------------|--(9/7)-----(9/10)--S--(109)--|
|--(75)--2--2--2--2--2--2--|--(7/5)-----(7/8 )--T--(8 7)--|
|---------0--0--0--0--0--0--|---------0---------------------|

……………. …


|---------------------------|--------------------------------| |
|---------------------------|--------------------------------| |
|---------------------------|--------------------------------||
|--(97)--------------------|-------------12----12--12 10--||
|--(75)--2--2--2--2--2--2--|--(109)-----10----10--10 8---| |
|---------0--0--0--0--0--0--|--(8 7)--0---------------------| |

……………. …

Pre-Chorus A: Guitar 1 (Play once)


||----------------------|-------------------------|
||----------------------|-------------------------|
||----------------------|--7~~-------7--10--9--7--|
||----------------------|-------------------------|
||--5~~-----------5--8--|-------------------------|
||----------------------|-------------------------|


|-----------------------|---------------------------------|
|-----------------------|---------------------------------|
|-----------------------|--12--10--9--10--9h 10p 9--7--9--|
|--8~~------------- --|---------------------------------|
|-----------------------|---------------------------------|
|-----------------------|---------------------------------|


|----------------------|-------------------------|--------------------|
|----------------------|-------------------------|--------------------|
|----------------------|--7~~-------7--10--9--7--|--------------------|
|----------------------|-------------------------|--8~~---------------|
|--5~~-----------5--8--|-------------------------|--------------------|
|----------------------|-------------------------|--------------------|

8 9


|--------------------------------|----------------------|
|--10 p 8------8-----------------|----------------------|
|----------10-----10 p 9--10--9--|----------------------|
|--------------------------------|----------------------|
|--------------------------------|--5~~-----------5--8--|
|--------------------------------|----------------------|

10 11


|-------------------------|-----------------------|
|-------------------------|-----------------------|
|--7~~-------7--10--9--7--|-----------------------|
|-------------------------|--8~-------------- --|
|-------------------------|-----------------------|
|-------------------------|-----------------------|


|---------------------------------|----------------------|
|---------------------------------|----------------------|
|--12--10--9--10--9h 10p 9--7--9--|----------------------|
|---------------------------------|----------------------|
|---------------------------------|--5~~-----------5--8--|
|---------------------------------|----------------------|


|-------------------------|---------------------------|
|-------------------------|---------------------------|
|--7~~-------7--10--9--7--|---------------------------|
|-------------------------|--8~~--- p0---------------|
|-------------------------|---------------------------|
|-------------------------|-------------11 --------|


|----------------------------||
|----------------------------||
|----------------------------||
|----------------------------||
|--2--2--2-2-2--2--2--2-2-2--||
|--0--0--0-0-0--0--0--0-0-0--||

……………………

Pre-Chorus B: Guitar 2 (Play once)


||----------------------|----------------------|-------------------|
||----------------------|----------------------|-------------------|
||----------------------|----------------------|-------------------|
||----------------------|--7~~-----------8--7--|--5~~--------------|
||--5~~-----------5--8--|----------------------|-------------------|
||----------------------|----------------------|-------------------|
|----------------------------------| |
|----------------------------------| |
|----------------------------------|| X 3
|--10--8--7--8--7h 8p (75)--7--5--||
|----------------------------------| |
|----------------------------------| |
||----------------------|----------------------|
||----------------------|----------------------|
||----------------------|----------------------|
||----------------------|--7~~-----------8--7--|
||--5~~-----------5--8--|----------------------|
||----------------------|----------------------|
|-------------------------|----------------------------||
|-------------------------|----------------------------||
|-------------------------|----------------------------||
|-------------14 -----|----------------------------|| X 1
|--5~~--------14 -----|--2--2--2-2-2--2--2--2-2-2--||
|-------------12 -----|--0--0--0-0-0--0--0--0-0-0--||

……………………

Chorus 1a: Guitar 1 (Play once) ( Tempo 85 BPM )


||-------------------------------|------------------------------|
||-------------------------------|------------------------------|
||-------------------------------|--------------4~~-------------|
||--2--5--4--5--5/7--5--4h 5-5~~-|--2--5--4--5------5--4h 5-5~~-|
||-------------------------------|------------------------------|
||-------------------------------|------------------------------|
|-------------------------------|------------------------------|
|-------------------------------|------------------------------|
|-------------------------------|--4--2--------5--4--4t5-------|
|--2--5--4--5--5/7--5--4h 5-5~~-|--------5--2--------------5-4-|
|-------------------------------|------------------------------|
|-------------------------------|------------------------------|
|-------------------------------|------------------------------|
|-------------------------------|------------------------------|
|-------------------------------|--------------4~~-------------|
|--2--5--4--5--5/7--5--4h 5-5~~-|--2--5--4--5------5--4h 5-5~~-|
|-------------------------------|------------------------------|
|-------------------------------|------------------------------|
|-------------------------------|-------------------------------||
|-------------------------------|-------------------------------||
|-------------------------------|--4--2--------5--4--2p 0-b3-||
|--2--5--4--5--5/7--5--4h 5-5~~-|--------5--2-------------------||
|-------------------------------|-------------------------------||
|-------------------------------|-------------------------------||

Chorus 1b: Guitar 2 (Play once)


||-------------------------------|--------------------------------|
||-------------------------------|--------------------------------|
||-------------------------------|--------------~~-------------|
||--2--5--4--5--5/7--5--4h 5-5~~-|--2--5--4--5--------5--4h 5-5~~-|
||-------------------------------|--------------------------------|
||-------------------------------|--------------------------------|
|-------------------------------|------------------------------|
|-------------------------------|------------------------------|
|-------------------------------|--7--5--4--2--7/9--7--5-4-2-0-|
|--2--5--4--5--5/7--5--4h 5-5~~-|------------------------------|
|-------------------------------|------------------------------|
|-------------------------------|------------------------------|
|-------------------------------|--------------------------------|
|-------------------------------|--------------------------------|
|-------------------------------|--------------~~-------------|
|--2--5--4--5--5/7--5--4h 5-5~~-|--2--5--4--5--------5--4h 5-5~~-|
|-------------------------------|--------------------------------|
|-------------------------------|--------------------------------|
|-------------------------------|--------------------------------||
|-------------------------------|--------------------------------||
|-------------------------------|--7--5--4--2--7/9--7--5-4-~~-||
|--2--5--4--5--5/7--5--4h 5-5~~-|--------------------------------||
|-------------------------------|--------------------------------||
|-------------------------------|--------------------------------||

Guitars 1 & 2 play the Verse twice ( Tempo 174 BPM )

Guitars 1 & 2 play the Pre-Chorus once, replacing the 2nd last bar with this:

(Guitar 1 only)


||---------------------------||
||---------------------------||
||---------------------------||
||--8~~-------p0-------------||
||---------------------------||
||---------------13 ------||

Chorus 2a: Guitar 1 (Play once) ( Tempo 85 BPM )


||-------------------------------|------------------------------|
||-------------------------------|------------------------------|
||-------------------------------|--------------4~~-------------|
||--2--5--4--5--5/7--5--4h 5-5~~-|--2--5--4--5------5--4h 5-5~~-|
||-------------------------------|------------------------------|
||-------------------------------|------------------------------|
|-------------------------------|--------------------------------|
|-------------------------------|--------------------------------|
|-------------------------------|--4--2--------5--4--4t5---------|
|--2--5--4--5--5/7--5--4h-5-5~~-|--------5--2--------------5--4--|
|-------------------------------|--------------------------------|
|-------------------------------|--------------------------------|

….


|-------------------------------|------------------------------|
|-------------------------------|------------------------------|
|-------------------------------|--------------4~~-------------|
|--2--5--4--5--5/7--5--4h 5-5~~-|--2--5--4--5------5--4h 5-5~~-|
|-------------------------------|------------------------------|
|-------------------------------|------------------------------|
|-------------------------------|-----------------------------||
|-------------------------------|---------------------7-5-7~~-||
|-------------------------------|--4--2--------5--4~~---------||
|--2--5--4--5--5/7--5--4h 5-5~~-|--------5--2-----------------||
|-------------------------------|-----------------------------||
|-------------------------------|-----------------------------||

Chorus 2b: Guitar 2 (Play once)


||--------------------------------|--------------------------------|
||--------------------------------|--------------------------------|
||--------------------------------|--------------~~-------------|
||--2--5--4--5--5/7~~-5--4h 5-5~~-|--2--5--4--5--------5--4h 5-5~~-|
||--------------------------------|--------------------------------|
||--------------------------------|--------------------------------|
|-------------------------------|------------------------------|
|-------------------------------|------------------------------|
|-------------------------------|--7--5--4--2--7/9--7--5-4-2-0-|
|--2--5--4--5--5/7--5--4h 5-5~~-|------------------------------|
|-------------------------------|------------------------------|
|-------------------------------|------------------------------|
|-------------------------------|--------------------------------|
|-------------------------------|--------------------------------|
|-------------------------------|--------------~~-------------|
|--2--5--4--5--5/7--5--4h 5-5~~-|--2--5--4--5--------5--4h 5-5~~-|
|-------------------------------|--------------------------------|
|-------------------------------|--------------------------------|
|-------------------------------|---------------------------------||
|-------------------------------|---------------------------------||
|-------------------------------|--7--5--4--2--7/9--7--11p 9-11~~-||
|--2--5--4--5--5/7--5--4h 5-5~~-|---------------------------------||
|-------------------------------|---------------------------------||
|-------------------------------|---------------------------------||

Guitars 1, 2 & 3 play Riff 1, with each guitar ending with the following:

Guitar 1 & 2:


||----------------------||
||----------------------||
||----------------------||
||--7------ ---------||
||--5------ ---------||
||----------------------||

Guitar 3:


||-----------------------||
||-----------------------||
||--7~~--- -----------||
||-----------------------||
||-----------------------||
||-----------------------||

During the repeat of Riff 1 there are 2 more guitars providing lead fills, which
are tabbed below:

Fill 1:


||------------------------|-------------------------|
||--7~~-------~~-------|-(7)-------~~---8~~---|
||------------------------|-------------------------|
||------------------------|-------------------------|
||------------------------|-------------------------|
||------------------------|-------------------------|
|------------------------|----------------------||
|--7~~-------~~-------|-(7)------------------||
|------------------------|-----------7--6--4----||
|------------------------|----------------------||
|------------------------|----------------------||
|------------------------|----------------------||

Fill 2:

With whammy bar vibrato


||--------------------|--------------------|------------------------||
||--7~~------7~~------|--8~~------8~~------|--~~------~~------||
||--------------------|--------------------|------------------------||
||--------------------|--------------------|------------------------||
||--------------------|--------------------|------------------------||
||--------------------|--------------------|------------------------||

Rest for 34 Bars

Guitars 1 & 2 play the Intro 4 times

Guitars 1, 2 & 3 play Riff 1

Guitar Solo 1: Guitar 4 with Heavy Distortion (Play once)

Guitars 1 & 2 play the verse riff twice during the guitar solos


||--15-----15-----15----15b16- --|----------------------------------|
||--15b17--15b17--15b (17)--- --|----------------------12----------|
||---------------------------------|------------------12------12------|
||---------------------------------|--------------14--------------14--|
||---------------------------------|----------14----------------------|
||---------------------------------|--12--15--------------------------|

…………..


|----------------------------------|-----------------------------------|
|----------------------------------|-(15/20)-19------------------------|
|--12--11------12--11------11------|-------------17--16~~-- ----------|
|----------------------------------|--------------------------------14-|
|----------14----------14------14--|-----------------------------------|
|----------------------------------|-----------------------------------|
|-------------------------------------------------|
|-------------------------------------------------|
|-----------------------------------------------x-|
|--14-14-14-12-12-12-12-12-15-15-15-15-14-14-14---|
|-------------------------------------------------|
|-------------------------------------------------|

|___3____| |___3____| % Dive down 6 steps


|--------------------------------------------------|-------------------|
|--------------------------------------------------|-------------------|
|--12-12-12-12-10-10-10-10-14--14--14--12--12--12--|-------------------|
|--------------------------------------------------|--%----------------|
|--------------------------------------------------|--0----------------|
|--------------------------------------------------|--0----------------|
|---------------------------------------------------||
|---------------------------------------------------||
|---------------------------------------------------||
|--------------------12-14-(14/17)----(16b19r16)~~--||
|-----------12-14-15--------------------------------||
|--12-14-15-----------------------------------------||

Guitar Solo 2: Guitar 5 with Heavy Distortion (Play once)

The first bar of this solo is an overlap of the last bar of the Guitar Solo 1


||----------------------------------------------|
||----------------------------------------------|
||----------------------------------------------|
||--------------------17--(17/21)----19b21r19---|
||-----------15-17-19---------------------------|
||--15-17-19------------------------------------|
|---------------------------------------------------|
|---------------------------------------------------|
|---------------------------------------------9--9--|
|---------------------------------------------x--x--|
|--b8--b8----b8r7--b8r7--b8r7--7--7--|
|---------------------------------------------------|
|-----------------------------------------|---------------------------|
|--12h13----12---10--(129)---10---(6/10)-|--105 b 6r5~~--- --0 / |
|-----------------------------------------|---------------------------|
|-----------------------------------------|---------------------------|
|-----------------------------------------|---------------------------|
|-----------------------------------------|---------------------------|
|--------------------------------------|--------------------------|
|--5-6h 8-6----------------------------|--------------------x-----|
|-----------7-5-4---4h 5-4-------------|--------------------x-----|
|-----------------7--------7-5---------|--------------------x-----|
|------------------------------8-(75)-|-(5/7 2)b3r2~~--7--7--|
|--------------------------------------|--------------------------|

….


|------------------------------|
|------------------------------|
|------------------------------|
|------7--(7/12)--10~~-----14--|
|--7---------------------------|
|------------------------------|

T T


|-----------12h 15-19p 15h 19p 15-19/20-17--------------------|
|--------12--------------------------------18-----------------|
|-----12--------------------------------------17--------------|
|--14--------------------------------------------19-----------|
|---------------------------------------------------20-19h 20-|
|-------------------------------------------------------------|
|-----------------------------------|--------------------|
|-----------------------------------|--------------------|
|---------------12----12--(11 7)--|--7~~---------------|
|-----------14----------------------|--------------------|
|--(1914)--------------------------|--------------------|
|-----------------------------------|--------------------|
|---------------------||
|---------------------||
|--(7)~~------- ----||
|---------------------||
|---------------------||
|---------------------||

Guitars 1 & 2 play the Pre-Chorus once

Guitars 1 & 2 play Chorus 2 once (Tempo 85 BPM )

Outro A: Guitar 1 (Play once)


||------------------------------------|----------------------------------|
||------------------------------------|----------------------------------|
||------------------------------------|------------------4-4-------------|
||--2-2-5-5-4-4-5-5-5/7-7-5-5-4-5-5-5-|--2-2-5-5-4-4-5-5-----5-5-4-4-5-5-|
||------------------------------------|----------------------------------|
||------------------------------------|----------------------------------|
|------------------------------------|-------------------------------------|
|------------------------------------|-------------------------------------|
|------------------------------------|--4-4-2-2---------5-5-4-4-4t5--------|
|--2-2-5-5-4-4-5-5-5/7-7-5-5-4-5-5-5-|----------5-5-2-2---------------5--0-|
|------------------------------------|-------------------------------------|
|------------------------------------|-------------------------------------|


|--------(0)-(0)-------------------------------------(0)-------------(0)-|
|------------------------------------------------------------------------|
|--0-x-0--4---4--4-4-2-2-2-2-4-4-4-4-5-5-5-5-4-4-4-4--2--x-2-2-4-4-4--x--|
|------------------------------------------------------------------------|
|------------------------------------------------------------------------|
|------------------------------------------------------------------------|
|----------------------------------0-------------------------------|
|----------------------------------3-3-3-x-------------------------|
|--0-0-0-0-4-4-4-4-2-2-2-2-4-4-4-4---------4-4-4-4-2-2-2-2-4-4-4-4-|
|------------------------------------------------------------------|
|------------------------------------------------------------------|
|------------------------------------------------------------------|
|------------------------------------------------------------------|
|------------------------------------------------------------------|
|--0-0-0-0-4-4-4-4-2-2-2-2-4-4-4-4-5-5-5-5-4-4-4-4-2-2-2-2-4-4-4-x-|
|------------------------------------------------------------------|
|------------------------------------------------------------------|
|------------------------------------------------------------------|
|---------------------------------|-----------------------||
|---------------------------------|-----------------------||
|--4--2--------4/5--4--2-0-2p (0)-|--9-- --------------||
|--------5--2---------------------|--9-- --------------||
|---------------------------------|--7-- --------------||
|---------------------------------|-----------------------||

Outro B: Guitar 2 (Play once)


||------------------------------------|----------------------------------|
||------------------------------------|----------------------------------|
||------------------------------------|------------------4-4-------------|
||--2-2-5-5-4-4-5-5-5/7-7-5-5-4-4-5-5-|--2-2-5-5-4-4-5-5-----5-5-4-4-5-5-|
||------------------------------------|----------------------------------|
||------------------------------------|----------------------------------|
|------------------------------------|
|------------------------------------|
|------------------------------------|
|--2-2-5-5-4-4-5-5-5/7-7-5-5-4-4-5-5-|
|------------------------------------|
|------------------------------------|

|__3__|


|-----------------------------------------|
|-----------------------------------------|
|--7-7-5-5-4-4-2-2-9-9-7-7-5-4h 5p 4 2-0-|
|-----------------------------------------|
|-----------------------------------------|
|-----------------------------------------|
|--------------------------------------------------------------------|
|--------------------------------------------------------------------|
|--------------------------------------------------------------------|
|--2-2-2-2-5-5-5-5-4-4-4-4-5-5-5-5-5/7-7-7-7-5-5-5-5-4-4-4-4-5-5-5-5-|
|--------------------------------------------------------------------|
|--------------------------------------------------------------------|
|------------------------------------------------------------------|
|------------------------------------------------------------------|
|----------------------------------4-4-4-4-------------------------|
|--2-2-2-2-5-5-5-5-4-4-4-4-5-5-5-5---------5-5-5-5-4-4-4-4-5-5-5-5-|
|------------------------------------------------------------------|
|------------------------------------------------------------------|
|---------------------------------------------------------------------|
|---------------------------------------------------------------------|
|---------------------------------------------------------------------|
|--2-2-2-2-5-5-5-5-4-4-4-4-5-5-5-5-5/7-7-7-7-5-5-5-5-4-4-4-4 /5-5-5-5-|
|---------------------------------------------------------------------|
|---------------------------------------------------------------------|
|--------------------------------|-----------------------||
|--------------------------------|-----------------------||
|--7--5--4--2--7/9--7--5-4-~~-|--9-- --------------||
|--------------------------------|--9-- --------------||
|--------------------------------|--7-- --------------||
|--------------------------------|-----------------------||

Tab summary: Intro x 4
Riff 1a x 4 + Riff 1b x 1
Verse x 2
Pre-Chorus x 1
Chorus x 1
Verse x 2
Pre-Chorus x 1
Chorus x 1
Riff 1a x 4 + Riff 1b x 1
Intro x 4
Riff 1a x 4 + Riff 1b x 1
Guitar Solo 1 x 1
Guitar Solo 2 x 2
Pre-Chorus x 1
Chorus x 1
Outro x 1
END


-----------------------

Corrections (19/11/08):


-----------------------

Corrected the note positioning in the Pre-Chorus riffs.

Jika kamu pingin belajar mainin lagunya Cradle of Filth, termasuk chord gitar Tonight in Flames.
Kamu bisa belajar dengan mengikuti kursus, masuk sekolah musik, datengin guru untuk les privat bahkan bisa juga dengan cara otodidak.
Untuk dasarnya kamu bisa belajar C major, A major, G major, E major, and D major. Selain kunci tadi, nanti bisa dimodif dikit.

Jangan lupa selalu latihan untuk mainin gitar lagu Tonight in Flames. Awal-awal mungkin susah, semoga setelah terbiasa, nanti kamu bisa menguasai semua lagu Cradle of Filth

Leave a Reply

Your email address will not be published.