Chord Gitar You Can – David Archuleta

Posted on

Jika kamu nyariin kunci chord gitar untuk lagu You Can, kamu berada di halaman yang tepat.
Kamu bisa mainin You Can yang dinyanyiin oleh David Archuleta pake gitar yang kamu suka.

Chord lagu You Can punya ritme dan masuk dalam album David Archuleta (2008).
Di website ini, kamu juga bisa dapetin chord lain, seperti chord lagu jazz, chord lagu country, pop, rock, dll.

Kunci Gitar You Can oleh David Archuleta


[Chords Used]

[G/F#] [G/B] [Dsus4/F#]


e|--3---3------3-----3----3-----0----0-----3----2-----3------|
B|--3---3------3-----3----3-----3----2-----3----3-----3------|
G|--0---0------0-----0----0-----2----0-----2----2-----2------|
D|--0---0------2-----2----0-----2----2-----0----0-----0------|
A|--x---x------3-----2----2-----0----0----------------x------|
E|--3---2------------0--------------------------------2------|

[G/F#]


e|-------3--------------3--------------3--------------3---------|
B|----------3--------------3--------------3---3----------3------|
G|-----0--------0-----0--------0-----0------0-------0--------0--|
D|------------0--------------0-----------------------------2----|
A|--------------------------------3--------------3--------------|
E|--3--------------2--------------------------------------------|

[G/B]


e|-------3--------------3-----------------0----------------|
B|----------3--------------3-----------3------3-------2~---|
G|-----0--------0-----0--------0-----2------2--------------|
D|------------2--------------0----------------------2------|
A|-----------------2--------------0--------------0---------|
E|--0------------------------------------------------------|

G G/F# Cadd9


e|-------3--------------3--------------3--------------3---------| |
B|----------3--------------3--------------3---3----------3------| |
G|-----0--------0-----0--------0-----0------0-------0--------0--| |
D|------------0--------------0-----------------------------2----| |
A|--------------------------------3--------------3--------------| |
E|--3--------------2--------------------------------------------| |

| – 2x
Em7 G/B Asus4 A7 |


e|-------3--------------3-----------------0--------------0------| |
B|----------3--------------3-----------3------3-------2------0--| |
G|-----0--------0-----0--------0-----2------2--------------0----| |
D|------------2--------------0----------------------2-----------| |
A|-----------------2--------------0--------------0--------------| |
E|--0-----------------------------------------------------------| |

[/]


e|-------3--------------3--------------3---------2~--|
B|----------3---3----------3--------------3---3------|
G|-----0------0-------0--------0-----2------2--------|
D|---------------------------2----0------------------|
A|--3--------------3---------------------------------|
E|---------------------------------------------------|

You can[G/F#]
Save me from myself, you can[G/B]
And it’s you and no one else
If I could wish upon tomo[G/F#]rrow,
Tonight would never end
If you asked me, I would fo[G/B]llow
But for now, I just pretend
Cadd9 Dsus4
’cause if anyone can make me fall in love,

’cause if anyone can make me fall in love…
Only you can take me sailin’ in your [Dsus4/F#]deepest eyes
Bring me to my knees and [Dsus4/F#]make me cry
And no one’s ever done this, everything was just a lie
Asus4 Cadd9 Dsus4
And I know, yes I know…

[Final Chorus]

[G/F#]


e|-------3--------------3--------------3--------------3---------|
B|----------3--------------3--------------3---3----------3------|
G|-----0--------0-----0--------0-----0------0-------0--------0--|
D|------------0--------------0-----------------------------2----|
A|--------------------------------3--------------3--------------|
E|--3--------------2--------------------------------------------|

“This is where it all begins, so tell me it’ll never end

[G/B]


e|-------3--------------3--------------3--------------3---------|
B|----------3--------------3--------------3---3----------3------|
G|-----0--------0-----0--------0-----0------0-------0--------0--|
D|------------2--------------0-----------------------------2----|
A|-----------------2--------------3--------------3--------------|
E|--0-----------------------------------------------------------|

I can’t fool myself, it’s you and no one else”

If I could wish upon tomo[G/F#]rrow,
Tonight would never end
If you asked me, I would fo[G/B]llow
But for now, I just pretend
Cadd9 Dsus4
’cause if anyone can make me fall in love,

[G/F#]


e|-------3--------------3--------------3--------------3---------|
B|----------3--------------3--------------3---3----------3------|
G|-----0--------0-----0--------0-----0------0-------0--------0--|
D|------------0--------------0-----------------------------2----|
A|--------------------------------3--------------3--------------|
E|--3--------------2--------------------------------------------|

“You can

[G/B]


e|-------3--------------3-----------------0----------|
B|----------3--------------3-----------3------3------|
G|-----0--------0-----0--------0-----2------2--------|
D|------------2--------------0-----------------------|
A|-----------------2--------------0--------------0~--|
E|--0------------------------------------------------|

Show me that good things come to those who wait.”

Jika kamu pingin belajar mainin lagunya David Archuleta, termasuk chord gitar You Can.
Kamu bisa belajar dengan mengikuti kursus, masuk sekolah musik, datengin guru untuk les privat bahkan bisa juga dengan cara otodidak.
Untuk dasarnya kamu bisa belajar C major, A major, G major, E major, and D major. Selain kunci tadi, nanti bisa dimodif dikit.

Jangan lupa selalu latihan untuk mainin gitar lagu You Can. Awal-awal mungkin susah, semoga setelah terbiasa, nanti kamu bisa menguasai semua lagu David Archuleta

Leave a Reply

Your email address will not be published.