Chord Gitar You Got Me – Girlschool

Posted on

Jika kamu nyariin kunci chord gitar untuk lagu You Got Me, kamu berada di halaman yang tepat.
Kamu bisa mainin You Got Me yang dinyanyiin oleh Girlschool pake gitar yang kamu suka.

Chord lagu You Got Me punya ritme dan masuk dalam album Screaming Blue Murder (1982).
Di website ini, kamu juga bisa dapetin chord lain, seperti chord lagu jazz, chord lagu country, pop, rock, dll.

Kunci Gitar You Got Me oleh Girlschool


-----------------------------------------------------------------------------
-----------------------------------------------------------------------------

Notes:

-Tuning: Standard
-key of A — guitar solo is in A pentatonic minor
-video footage shows the song to be in A, but on the CD it sounds half
a tone lower — to play with the CD requires tuning down, or if you
have the re-mastered “SBM”, you can play along with the live version
(Track 13) rather than the studio version (Track 9),no re-tuning required
-4/4 time — bar lines do indicate timing

INTRO: (play 2x)


E|----------x-x-|-------------------|----------x-x-|---------3--------|
B|----------x-x-|-3-----------------|----------x-x-|-3-------3--------|
G|----------x-x-|-2-----------------|----------x-x-|-2----------------|
D|--------------|-------------------|--------------|------------------|
A|-0--3^s-0-----|-------------------|-0--3^s-0-----|------------------|
E|--------------|---------3~--------|--------------|------------------|

| |
| |
| |


E|-5--------x-x-|-------------------|-5--------x-x-|------------------|
B|-5--------x-x-|-7^(8)r------------|-5--------x-x-|-7^(8)r--8--------|
G|----------x-x-|-7^(9)r------------|----------x-x-|-7^(9)r--7--------|
D|--------------|---------5~--5h6h7-|--------------|------------5h6h7-|
A|--------------|-------------------|--------------|------------------|
E|--------------|-------------------|--------------|------------------|

(2nd x thru) You got

1ST VERSE:


E --------------|-------------------|--------------|---------15-------|
B --------------|-3-3---------------|--------------|-15-15---15-------|
G -2-2----------|-2-2-----0-----0---|-0-2----------|-14-14------------|
D -2-2----------|---------0---2-0-2-|-0-2----------|------------------|
A -0-0----------|-------------2---2-|--------------|------------------|
E --------------|-------------------|--------------|------------------|

me, You got me running around & around everything You got
that you do


E --------------|-------------------|--------------|---------15-------|
B --------------|-3-3---------------|--------------|-15-15---15-------|
G -2-2----------|-2-2-----0-----0---|-0-2----------|-14-14------------|
D -2-2----------|---------0---2-0-2-|-0-2----------|------------------|
A -0-0----------|-------------2---2-|--------------|------------------|
E --------------|-------------------|--------------|------------------|

me, I’m going up and down over town ’cause I’m
thinking ’bout you


E --------------|-------------------|--------------|------------------|
B ----------x-x-|-3-----------------|----------x-x-|-3----------------|
G ----------x-x-|-2-----------------|----------x-x-|-2----------------|
D ----------x-x-|-------------------|----------x-x-|------------------|
A -0--3^s-0-----|-------------------|-0--3^s-0-----|------------------|
E --------------|---------3~--------|--------------|---------3~-------|

And if I try too much I feel a It brings me
stranger’s touch, back for more at 2 or 3 or 4


E --------------|-------------------|--------------|------------------|
B ----------x-x-|-3-----------------|--------------|------------------|
G ----------x-x-|-2-----------------|--------------|-2-------2~-------|
D ----------x-x-|-------------------|--------------|------------------|
A -0--3^s-0-----|-------------------|-0--3^s-0-----|------------------|
E --------------|---------3~--------|--------------|------------------|

You know I’d kill
to do just what we used to do

CHORUS 1:


E --------------|-----5--------x-5--|--------------|-----5------8--8--|
B --------------|-----5--------x-5--|--------------|-----5------8--8--|
G -7------------|-------------------|-7------------|------------------|
D -7------------|-7-----------------|-7------------|-7----------------|
A -5------------|-7-----------------|-5------------|-7----------------|
E --------------|-5-----------------|--------------|-5----------------|

It’s breaking up When you’re
my mind, telling me lies,


E --------------|-----5--------x-5--|---------------|-----------------|
B --------------|-----5--------x-5--|---------------|-----------------|
G -7------------|-------------------|---------------|-----------------|
D -7------------|-7-----------------|-5-5-5--5-5-5|-2-2-2-2-2-2-2-2-|
A -5------------|-7-----------------|-5-5-5--5-5-5|-2-2-2-2-2-2-2-2-|
E --------------|-5-----------------|-3-3-3--3-3-3|-0-0-0-0-0-0-0-0-|

Makes me wonder why, But you got
something that I can’t hide


E --------------|---------15--15----|--------------|---------15--15---|
B ----------x-x-|-15------15--15----|----------x-x-|-15------15--15---|
G ----------x-x-|-14----------------|----------x-x-|-14---------------|
D ----------x-x-|-------------------|----------x-x-|------------------|
A -0--3^s-0-----|-------------------|-0--3^s-0-----|------------------|
E --------------|-------------------|--------------|------------------|

2ND VERSE: (played same as 1st Verse)

You got me
You got my open mind to decide everything that I do
You got me
You think it’s cut and dried but I try ’cause I still want you
But if I try too much I feel a stranger’s touch
It brings me back for more at two or three or four
You know I’d kill to do just what we used to do

CHORUS 2:
(only lead is tabbed)


E --------------|-----5-------5--5--|--------------|-----5------8--8--|
B --------------|-----5-------5--5--|-7------------|-----5------8--8--|
G --------------|-------------------|-7------------|------------------|
D --------------|-------------------|--------------|------------------|
A --------------|-------------------|--------------|------------------|
E --------------|-------------------|--------------|------------------|

It’s breaking up When you’re
my mind, telling me lies,


E --------------|-----5-------5--5--|---------------|-----------------|
B -7------------|-----5-------5--5--|---------------|-----------------|
G -7------------|-------------------|---------------|-----------------|
D --------------|-------------------|-5-5-5--5-5-5|-2-2-2-2-2-2-2-2-|
A --------------|-------------------|-5-5-5--5-5-5|-2-2-2-2-2-2-2-2-|
E --------------|-------------------|-3-3-3--3-3-3|-0-0-0-0-0-0-0-0-|

Makes me wonder why, But you got
something that I can’t hide

GUITAR SOLO:

(play top staff of Intro with 1st 8 measures of solo)


E -5-----5------|-------------------|-5-----5------|------------------|
B -5-----5----5-|-7^(8)r-5----------|-5-----5----5-|-7^(8)r-5---------|
G --------------|-7^(9)r---7~-5h6h7-|--------------|-7^(9)r-----------|
D --------------|-------------------|--------------|----------7~-5h6h7|
A --------------|-------------------|--------------|------------------|
E --------------|-------------------|--------------|------------------|
E -5-----5------|-------------------|-5-----5------|------------------|
B -5-----5----5-|-7^(8)r-5----------|-5-----5----5-|-7^(8)r-5---------|
G --------------|-7^(9)r---7~-5h6h7-|--------------|-7^(9)r-----------|
D --------------|-------------------|--------------|----------7-7-7p5-|
A --------------|-------------------|--------------|-----------------7|
E --------------|-------------------|--------------|------------------|
E --------------|-------------------|--------------|------------------|
B --------------|-------------------|--------------|------------------|
G -10^(12)~~-hb-|--------hb---------|------hb------|-r10--------------|
D --------------|-------------------|--------------|---------------5--|
A --------------|-------------------|--------------|------------------|
E --------------|-------------------|--------------|------------------|
E --------------|-------------------|--------------|--5---------------|
B --------------|-------------------|--------------|------------------|
G --------------|-------------------|-------7^(9)~-|---------7^(9)~-hb|
D -7~~----------|-------------------|--------------|------------------|
A --------------|-------------------|--------------|------------------|
E --------------|-------------------|--------------|------------------|

A5 (rhy. guit. re-enters)


E --------------|-------------------|--------------|------------------|
B --------------|-------------------|--------------|------------------|
G -hb------(9)r7|^(9)~--------------|--------------|------------------|
D --------------|-------------------|--------------|------------------|
A --------------|-------------------|--------------|------------------|
E --------------|-------------------|--------------|------------------|

Play CHORUS 2


E ----------x-x-|------15--15-15-15-|----------x-x-|-14--15--15-15-15-|
B ----------x-x-|-15---15--15-15-15-|----------x-x-|-15--15--15-15-15-|
G ----------x-x-|-14----------------|----------x-x-|------------------|Play
D --------------|-------------------|--------------|------------------| 2x
A -0--3^s-0-----|-------------------|-0--3^s-0-----|------------------|
E --------------|-------------------|--------------|------------------|

(2nd x thru) You got


E ----------x-x-|-------------------|----------x-x-|------------------|
B ----------x-x-|-7-----------------|----------x-x-|--7-------8-------|
G ----------x-x-|----7--------------|----------x-x-|--7-------7-------|
D --------------|-------7---5~------|--------------|------------------|
A -0--3^s-0-----|-------------------|-0--3^s-0-----|------------------|
E --------------|-------------------|--------------|------------------|

me You got me You got


E ----------x-x-|-------------------|----------x-x-|------------------|
B ----------x-x-|--7-7------8-------|----------x-x-|--7-7-----8-------|
G ----------x-x-|--7-7------7-------|----------x-x-|--7-7-----7-------|
D --------------|-------------------|--------------|------------------|
A -0--3^s-0-----|-------------------|-0--3^s-0-----|------------------|
E --------------|-------------------|--------------|------------------|

me You got me You got


E /5--5--5--5---|-------------------|/5--5--5--5---|------------------|
B /5--5--5--5-5-|-7^(8)r----8-------|/5--5--5--5-5-|-7^(8)r-----------|
G --------------|-7^(9)r----7-------|--------------|-7^(9)r-----------|
D --------------|-------------------|--------------|--------5~--5h6h7-|
A --------------|-------------------|--------------|------------------|
E --------------|-------------------|--------------|------------------|

me You got me You got


E /5--5--5--5---|-------------------|/5--5--5--5---|------------------|
B /5--5--5--5-5-|-7^(8)r----8-------|/5--5--5--5-5-|-7^(8)r-----------|
G --------------|-7^(9)r----7-------|--------------|--------7---------|
D --------------|-------------------|--------------|-----------5~-----|
A --------------|-------------------|--------------|------------------|
E --------------|-------------------|--------------|------------------|

me You got me

(fade)


-----------------------------------------------------------------------------

Corrections can be e-mailed to address above or added to comments section.

^…bend (wwhole tone,ssemi) x…muted note
r…release bend hb..hold bend
h…hammer on …hold note
p…pull off ~…vibrato
/…slide up

their interpretation of the song.)

Jika kamu pingin belajar mainin lagunya Girlschool, termasuk chord gitar You Got Me.
Kamu bisa belajar dengan mengikuti kursus, masuk sekolah musik, datengin guru untuk les privat bahkan bisa juga dengan cara otodidak.
Untuk dasarnya kamu bisa belajar C major, A major, G major, E major, and D major. Selain kunci tadi, nanti bisa dimodif dikit.

Jangan lupa selalu latihan untuk mainin gitar lagu You Got Me. Awal-awal mungkin susah, semoga setelah terbiasa, nanti kamu bisa menguasai semua lagu Girlschool

Leave a Reply

Your email address will not be published.